Nirvana - In Bloom Chords & Tabs

 

In Bloom Chords & Tabs

Nirvana Chords & Tabs

Version: 6 Type: Bass Tab 0 ratings
1 star 2 stars 3 stars 4 stars 5 stars
comments

In Bloom Bass Tab

Title : In Bloom
Artist : Nirvana
Tabbed By : Pete hamlet
Web site : www.nirvana6852.tripod.com/da-bomb
* = let ring
/ = slide up
\ = slide down

Intro
|---------------------------------|           |----------------------------|
|---------------------------------| X2        |----------------------------| X2
|---------------------------------|       OR  |1--1-1-1--------------------|
|--6--6-6\3*---1--1-1/-4*---------|           |---------3*---1--1-1-1/4*---|

Verse + play at solo
[ Tab from: http://www.guitartabs.cc/tabs/n/nirvana/in_bloom_btab_ver_6.html ]
|--------------------------------------------------|
|--------------------------------------------------| X6
|1-1-1-1-1----------6-6-6-6-6\2-2-2-2-2-0-0-0-0-0--|
|---------2-2-2-2-2--------------------------------|   

Chorus

|-----------------------------------------|
|-----------------------------------------|  X about 16 
|3--3-3-3/6--6-6-6-6-6--------------------| 
|-----------------------------------------|

I think thats it if it's not then plz e-mail me at MC.spider@ntlworld.com
Comments