Nirvana - In Bloom Chords & Tabs

 

In Bloom Chords & Tabs

Nirvana Chords & Tabs

Version: 4 Type: Bass Tab 1 rating
1 star 2 stars 3 stars 4 stars 5 stars
comments

In Bloom Bass Tab

   
Artist: Nirvana
Song: In Bloom
Album: Nevermind
Bass Tab 
Tuning: Standard (E, A, D, G)

I don't know how many people have tabbed this as a bass tab, 
i know that alot have done it though, but i think after alot of 
listening and watching Krist Novoselic on the "in bloom" video i have 
finally transcribed what i think is the 100% actual bass tab for this
song. if u luv nirvana and u play bass then i suggest u read on...

Intro:

G|-----------------|
D|-----------------|
A|-1-1-1-----------|
E|------3--1-1-1-4-| x2


Verses:

G|-----------------------------------------------------|
D|-------------------------1-1-1-1-1--1----------------|
A|-1-1-1-1-1--1------------------------2-2-2-2-0-0-0-0-|
E|-------------2-2-2-2-2--2----------------------------|

[ Tab from: http://www.guitartabs.cc/tabs/n/nirvana/in_bloom_btab_ver_4.html ]
Chorus:

G|-----------------------------------|
D|-----------------------------------|
A|-1--1--1--1---3-3-3-3\5--3-3-3-3\5-|
E|---3--3--3--3----------------------|


Then after 1st chorus:

G|----------------------------------|
D|----------------------------------|
A|-1-1-1-------------1-1-1-3--------|
E|------3--1-1-1-4--0-------1-1-1-4-|


Verse x4
Chorus x1


Solo:

G|-----------------------------------------------------|
D|-------------------------1-1-1-1-1--1----------------|
A|-1-1-1-1-1--1------------------------2-2-2-2-0-0-0-0-|
E|-------------2-2-2-2-2--2----------------------------|


Chorus x2

End on A first fret and fade out

Wel there u av it, in bloom bass tab, plz tell me wot u fink 
(if it ever gets off da que list!) at shinyfreak220@aol.com
thx and have fun! REMEMBER NIRVANA R COOL
Comments