Nirvana - In Bloom Chords & Tabs

 

In Bloom Chords & Tabs

Nirvana Chords & Tabs

Version: 2 Type: Bass Tab 8 ratings
1 star 2 stars 3 stars 4 stars 5 stars
comments

In Bloom Bass Tab

Nirvana

In Bloom

***************************************************************

Intro

G-----------------|--------------||
D*-8\-------------|-------------*||
A*---1--1-1-------|-------------*||
E------------/3---|-1--0-1-0-4---||

***************************************************************

Verse
[ Tab from: http://www.guitartabs.cc/tabs/n/nirvana/in_bloom_btab_ver_2.html ]
G---------------|--------------|--------------|------------------||
D*--------------|--------------|-1-1-1-1-1--1-|-----------------*||
A*-1-1-1-1-1--1-|--------------|--------------|-2-2-2-2-0-0-0-0-*||
E---------------|-2-2-2-2-2--2-|--------------|------------------||

****************************************************************

Chorus

G------------------------|---------------------------||
D*-----------------------|----5---------------------*||
A*-3--1-3-1-3------------|-3---1-3-1-2--------------*||
E-------------3--0-1-2-3-|-------------3--0-3-0-3-0--||

*****************************************************************

Bridge

G----------8----8\-|-----------8----8\--||
D*--------------8\-|----------------8\-*||
A*-----------------|-------------------*||
E--8-8-8-8-9-------|-1/8-8-8-8-9--------||


By:Mats Myrvold
Comments