Nirvana - In Bloom Chords & Tabs

 

In Bloom Chords & Tabs

Nirvana Chords & Tabs

Version: 10 Type: Bass Tab 0 ratings
1 star 2 stars 3 stars 4 stars 5 stars
comments

In Bloom Bass Tab

Okay, this is the actual Bass Tablature, and trust me its right. 
The tuning is Standard, so dont down tune. And have fun

Intro
G---------------------------|-----------------------------------|
D---------------------------|-----------------------------------|
A-----------------------2---|----------------------------3------|
E--6---6/10\3---3-3--2-3-3-2|--1---1-1-3-4----4---4-4-3-4---4-5-|

G---------------------------|--------------|--------------------|
D---------------------------|--------------|--------------------|
A-----------------------2---|--------------|--------------------|
E--6---6/10\3---3-3--2-3-3-2|--1---1-1-3-4-|--------------------|

Verse 1
G--------------------------------------|-----------------------------------|
D--------------------------------------|-----------------------------------|
A------1-1-1-1-1-----1-----------------|-/6-6-6-6-6-----6-2-2-2-2--0-0-0-0-|
E----------------------2-2-2-2-2-----2-|-----------------------------------|

G--------------------------------------|-----------------------------------|
D--------------------------------------|-----------------------------------|
A------1-1-1-1-1-----1-----------------|-----------------------------------|
E----------------------2-2-2-2-2-----2-|-----------------------------------|

Chorus
G--------------------------------|-------------------------|
D--------------------------------|-------------------------|
A-6-6-6-6-6--6-0-2-2-2-2/5-5-5-0-|--1--1-1-3---------------|
E--------------------------------|-------------3-3-3---1-1-|

G-----------------------------|-------------------------|
D-----------------------------|-------------------------|
A--1--1-1---3------------1----|--1--1-1-3---------------|
E--------------3-3-1----3-3---|-------------3-3-3---1-1-|
[ Tab from: http://www.guitartabs.cc/tabs/n/nirvana/in_bloom_btab_ver_10.html ]
G-----------------------------|---------------------------6--------|
D-----------------------------|---------------------------------8\-|
A--1--1-1---3-----------1-----|-----3----3-3-3---3/6-6-6-----------|
E--------------3-3-1---3-3----|------------------------------------|

G---------------------------6--------|---------------------------6--------|
D---------------------------------8\-|---------------------------------8\-|
A-----3----3-3-3---3/6-6-6-----------|-----3----3-3-3---3/6-6-6-----------|
E------------------------------------|------------------------------------|

G-----------------------6--------|----------------------------|
D-----------------------------8/-|----------------------------|
A---3--3-3-3---3/6-6-6-----------|----------------------2-----|
E--------------------------------|--6--6/10\3---3-3-2-3---3-2-|

G-------------------------------|---------------------------|
D-------------------------------|---------------------------|
A------------------------3------|---------------------2-----|
E--1---1-1-3-4---4-4-3-4---4--5-|-6--6/10\3---3-3-2-3---3-2-|

G------------------------------|
D------------------------------|
A------------------------------|
E--1---1-1-3-4---4-4-4-5--(5)\-|

Bass during Guitar Solo
G------------------------------|--------------------------------|
D------------------------------|-1-1-1-1-1---1------------------|
A-1-1-1-1-1---1----------------|----------------2-2-2-2-0-0-0-0-|
E----------------2-2-2-2-2---2-|--------------------------------|

G---------------------------------|
D-1-1-1-1-1--1--------------------|
A---------------0-2-2-2-2-5-5-5-0-|
E---------------------------------|

Outro
G-----------------------------|----------------------------|
D-----------------------------|----------------------------|
A-----------------------2-----|----------------------3-----|
E---6--6/10\3---3-3-2-3---3-2-|-1--1-1-3-4---4-4-3-4---4-5-|

G-----------------------------|------------------------------------------|--|
D-----------------------------|------------------------------------------|--|
A-----------------------2-----|------------------------------------------|--|
E---6--6/10\3---3-3-2-3---3-2-|---1----1--1--3--4----4--4--4--5--5--4--5-|-6\

And thats it, it seems awkward, but its right, trust me. Just follow along with the Song.
Comments