Nirvana - In Bloom Chords & Tabs

 

In Bloom Chords & Tabs

Nirvana Chords & Tabs

Version: 1 Type: Bass Tab 1 rating
1 star 2 stars 3 stars 4 stars 5 stars
comments

In Bloom Bass Tab

 In Bloom -Nirvana
  This is tabbed by me Josh Chenoweth
Ok most of the stuff i have seen is right but, there are some wrong spots!!

  The intro can be done 2 ways the first is:

 Intro
G|-----------------------------------|
D|-----------------------------------|
A|-5-5-5/1---------0-3-4-5-5-5/1-----|
E|---------1-1-1/5---------------1-5-|

 The other one is:
G|-----------------------------------|
D|-----------------------------------|
A|-----------------------------------|
E|-10-10-10\6--1-1-1/5---------------|

 That is pretty much the same!!

Verse
G|---------------------------------------------|
D|-----------------------1-1-1-1--1------------|
A|-1-1-1-1--1-----------------------2-2-2-0-0-0|
E|------------2-2-2-2--2-----------------------|
[ Tab from: http://www.guitartabs.cc/tabs/n/nirvana/in_bloom_btab.html ]
 You can also do this:
G|--------------------------------------------------|
D|--------------------------------------------------|
A|-1-1-1-1--1------------6-6-6-6--6----2-2-2-2-0-0-0|
E|------------2-2-2-2--2----------------------------|

This part i think is right!!

Chorus
G|-----------------------------------------|
D|-------------------2-2-2-2---------------|
A|-5-5-5-5\2-2-2-------------3-3-----------|
E|--------------3-3-3-------------0-3-0-3-0|
On second play of chorus right before you go back to intro, play this
G|-------------------------------------------------------------------------|
D|-------------------2-2-2-2-----------------------------------------------|
A|-5-5-5-5\2-2-2-------------3-3------------5-5-5-5-5-7-7-7-5-5-5-5-5-7-7-7|
E|--------------3-3-3-------------0-3-0-3-0--------------------------------|

 Yeah well im tired of typin and crap so do some work and figure out the order!

 Krist is and always will be the best bass player!! Nirvana will live forever!!

 Any comments or crap like that e-mail   ( vettes1975@msn.com )
Comments