Nirvana - I Hate Myself And Want To Die Chords & Tabs

 

I Hate Myself And Want To Die Chords & Tabs

Nirvana Chords & Tabs

Version: 4 Type: Tab 0 ratings
1 star 2 stars 3 stars 4 stars 5 stars
comments

I Hate Myself And Want To Die Tab

D#||----------------------|--------------------------|
A#||----------------------|--------------1----1------|
F#||----------5----5------|--------------0----0------|
C#||----------5----5--0-0-|--2--2--1--2----------0-0-|
G#||----------3----3--0-0-|--2--2--1--2--3----3--0-0-|
C#||------------------0-0-|--2--2--1--2----------0-0-|


                                                      
--------------------------|--------------------------|
--------------1----1------|--------------1----1------|
--------------0----0------|--------------0----0------|
--2--2--1--2----------0-0-|--2--2--1--2----------0-0-|
--2--2--1--2--3----3--0-0-|--2--2--1--2--3----3--0-0-|
--2--2--1--2----------0-0-|--2--2--1--2----------0-0-|


                                                      
--------------------------|--------------------------|
--------------1----1------|--------------1----1------|
--------------0----0------|--------------0----0------|
--2--2--1--2----------0-0-|--2--2--1--2----------0-0-|
--2--2--1--2--3----3--0-0-|--2--2--1--2--3----3--0-0-|
--2--2--1--2----------0-0-|--2--2--1--2----------0-0-|


                                                      
--------------------------|--------------------------|
--------------1----1------|--------------1----1------|
--------------0----0------|--------------0----0------|
--2--2--1--2----------0-0-|--2--2--1--2----------0-0-|
--2--2--1--2--3----3--0-0-|--2--2--1--2--3----3--0-0-|
--2--2--1--2----------0-0-|--2--2--1--2----------0-0-|


                                                      
--------------------------|--------------------------|
--------------1----1------|--------------1----1------|
--------------0----0------|--------------0----0------|
--2--2--1--2----------0-0-|--2--2--1--2----------0-0-|
--2--2--1--2--3----3--0-0-|--2--2--1--2--3----3--0-0-|
--2--2--1--2----------0-0-|--2--2--1--2----------0-0-|


                                                                                
--------------------------|--------------------------|-------------------------|
--------------1----1------|--------------1----1------|-------------------------|
--------------0----0------|--------------0----0------|--------------0----0--0--|
--2--2--1--2----------0-0-|--2--2--1--2----------0-0-|--2--2--1--2--0----0--0--|
--2--2--1--2--3----3--0-0-|--2--2--1--2--3----3--0-0-|--2--2--1--2-------------|
--2--2--1--2----------0-0-|--2--2--1--2----------0-0-|--2--2--1--2--5----5--5--|


                                                                              
-------------------------|-------------------------|-------------------------|
-------------------------|-------------------------|-------------------------|
--3--3--3--3--0----0--0--|--3--3--3--3--0----0--0--|--3--3--3--3--0----0--0--|
--3--3--3--3--0----0--0--|--3--3--3--3--0----0--0--|--3--3--3--3--0----0--0--|
--1--1--1--1-------------|--1--1--1--1-------------|--1--1--1--1-------------|
--------------5----5--5--|--------------5----5--5--|--------------5----5--5--|


                                                                              
-------------------------|-------------------------|-------------------------|
-------------------------|-------------------------|-------------------------|
--3--3--3--3--0----0--0--|--3--3--3--3--0----0--0--|--3--3--3--3--0----0--0--|
--3--3--3--3--0----0--0--|--3--3--3--3--0----0--0--|--3--3--3--3--0----0--0--|
--1--1--1--1-------------|--1--1--1--1-------------|--1--1--1--1-------------|
--------------5----5--5--|--------------5----5--5--|--------------5----5--5--|


                                                                               
-------------------------|-------------------------|--------------------------|
-------------------------|-------------------------|--------------1----1------|
--3--3--3--3--0----0--0--|--3--3--3--3--0----0--0--|--3--3--3--3--0----0------|
--3--3--3--3--0----0--0--|--3--3--3--3--0----0--0--|--3--3--3--3----------0-0-|
--1--1--1--1-------------|--1--1--1--1-------------|--1--1--1--1--3----3--0-0-|
--------------5----5--5--|--------------5----5--5--|----------------------0-0-|


                                                                                
--------------------------|-------------------------|--------------------------|
--------------1----1------|-------------1----1------|--------------1----1------|
--------------0----0------|-------------0----0------|--------------0----0------|
--2--2--1--2----------0-0-|--2--2----2----------0-0-|--2--2--1--2----------0-0-|
--2--2--1--2--3----3--0-0-|--2--2----2--3----3--0-0-|--2--2--1--2--3----3--0-0-|
--2--2--1--2----------0-0-|--2--2----2----------0-0-|--2--2--1--2----------0-0-|


                                                      
--------------------------|--------------------------|
--------------1----1------|--------------1----1------|
--------------0----0------|--------------0----0------|
--2--2--1--2----------0-0-|--2--2--1--2----------0-0-|
--2--2--1--2--3----3--0-0-|--2--2--1--2--3----3--0-0-|
--2--2--1--2----------0-0-|--2--2--1--2----------0-0-|


                                                                                
--------------------------|--------------------------|-------------------------|
--------------1----1------|--------------1----1------|-------------------------|
--------------0----0------|--------------0----0------|--------------0----0--0--|
--2--2--1--2----------0-0-|--2--2--1--2----------0-0-|--2--2--1--2--0----0--0--|
--2--2--1--2--3----3--0-0-|--2--2--1--2--3----3--0-0-|--2--2--1--2-------------|
--2--2--1--2----------0-0-|--2--2--1--2----------0-0-|--2--2--1--2--5----5--5--|


                                                                              
-------------------------|-------------------------|-------------------------|
-------------------------|-------------------------|-------------------------|
--3--3--3--3--0----0--0--|--3--3--3--3--0----0--0--|--3--3--3--3--0----0--0--|
--3--3--3--3--0----0--0--|--3--3--3--3--0----0--0--|--3--3--3--3--0----0--0--|
--1--1--1--1-------------|--1--1--1--1-------------|--1--1--1--1-------------|
--------------5----5--5--|--------------5----5--5--|--------------5----5--5--|


                                                                              
-------------------------|-------------------------|-------------------------|
-------------------------|-------------------------|-------------------------|
--3--3--3--3--0----0--0--|--3--3--3--3--0----0--0--|--3--3--3--3--0----0--0--|
--3--3--3--3--0----0--0--|--3--3--3--3--0----0--0--|--3--3--3--3--0----0--0--|
--1--1--1--1-------------|--1--1--1--1-------------|--1--1--1--1-------------|
--------------5----5--5--|--------------5----5--5--|--------------5----5--5--|

[ Tab from: http://www.guitartabs.cc/tabs/n/nirvana/i_hate_myself_and_want_to_die_tab_ver_4.html ]
                                                                             
-------------------------|-------------------------|------------------------|
-------------------------|-------------------------|------------------------|
--3--3--3--3--0----0--0--|--3--3--3--3--0----0--0--|--3--3--3--3------------|
--3--3--3--3--0----0--0--|--3--3--3--3--0----0--0--|--3--3--3--3------------|
--1--1--1--1-------------|--1--1--1--1-------------|--1--1--1--1------------|
--------------5----5--5--|--------------5----5--5--|--------------0----5----|


                                                                          
----------------------|-----------------------|--------------------------|
----------------------|--------------------7--|--8--7----8--10----10--8b-|
-----------------0----|-----------------9-----|--------------------------|
------------0---------|--4----3----2----------|--------------------------|
--2----3--------------|-----------------------|--------------------------|
----------------------|-----------------------|--------------------------|


                                                                        
----------------------|------------------------|-----------------------|
--8----8--------------|------------------------|-----------------------|
----------------------|------------------------|-----------------8--9--|
----------------------|----------5--7--7b---5b-|-----------------------|
----------------8--7--|--5--7------------------|----9----7--5b---------|
----------------------|------------------------|-----------------------|


                                                                          
------------------------|----------------------|-------------------------|
------------------------|----------------------|-------------------------|
--8----8--9--8----8--9--|--8--------0----0--0--|--3--3--3--3--0----0--0--|
------------------------|-----------0----0--0--|--3--3--3--3--0----0--0--|
------------------------|----------------------|--1--1--1--1-------------|
------------------------|-----------5----5--5--|--------------5----5--5--|


                                                                              
-------------------------|-------------------------|-------------------------|
-------------------------|-------------------------|-------------------------|
--3--3--3--3--0----0--0--|--3--3--3--3--0----0--0--|--3--3--3--3--0----0--0--|
--3--3--3--3--0----0--0--|--3--3--3--3--0----0--0--|--3--3--3--3--0----0--0--|
--1--1--1--1-------------|--1--1--1--1-------------|--1--1--1--1-------------|
--------------5----5--5--|--------------5----5--5--|--------------5----5--5--|


                                                                             
-------------------------|-------------------------|------------------------|
-------------------------|-------------------------|------------------------|
--3--3--3--3--0----0--0--|--3--3--3--3--0----0--0--|--3--3--3--3--0----0----|
--3--3--3--3--0----0--0--|--3--3--3--3--0----0--0--|--3--3--3--3--0----0----|
--1--1--1--1-------------|--1--1--1--1-------------|--1--1--1--1------------|
--------------5----5--5--|--------------5----5--5--|--------------5----5----|


                                                                                
-------------------------|--------------------------|--------------------------|
-------------------------|--------------1----1------|--------------1----1------|
--3--3--3--3--0----0--0--|--3--3--3--3--0----0------|--------------0----0------|
--3--3--3--3--0----0--0--|--3--3--3--3----------0-0-|--2--2--1--2----------0-0-|
--1--1--1--1-------------|--1--1--1--1--3----3--0-0-|--2--2--1--2--3----3--0-0-|
--------------5----5--5--|----------------------0-0-|--2--2--1--2----------0-0-|


                                                      
--------------------------|--------------------------|
--------------1----1------|--------------1----1------|
--------------0----0------|--------------0----0------|
--2--2--1--2----------0-0-|--2--2--1--2----------0-0-|
--2--2--1--2--3----3--0-0-|--2--2--1--2--3----3--0-0-|
--2--2--1--2----------0-0-|--2--2--1--2----------0-0-|


                                                      
--------------------------|--------------------------|
--------------1----1------|--------------1----1------|
--------------0----0------|--------------0----0------|
--2--2--1--2----------0-0-|--2--2--1--2----------0-0-|
--2--2--1--2--3----3--0-0-|--2--2--1--2--3----3--0-0-|
--2--2--1--2----------0-0-|--2--2--1--2----------0-0-|


                                                                                
--------------------------|--------------------------|-------------------------|
--------------1----1------|--------------1----1------|-------------------------|
--------------0----0------|--------------0----0------|--------------0----0--0--|
--2--2--1--2----------0-0-|--2--2--1--2----------0-0-|--2--2--1--2--0----0--0--|
--2--2--1--2--3----3--0-0-|--2--2--1--2--3----3--0-0-|--2--2--1--2-------------|
--2--2--1--2----------0-0-|--2--2--1--2----------0-0-|--2--2--1--2--5----5--5--|


                                                                              
-------------------------|-------------------------|-------------------------|
-------------------------|-------------------------|-------------------------|
--3--3--3--3--0----0--0--|--3--3--3--3--0----0--0--|--3--3--3--3--0----0--0--|
--3--3--3--3--0----0--0--|--3--3--3--3--0----0--0--|--3--3--3--3--0----0--0--|
--1--1--1--1-------------|--1--1--1--1-------------|--1--1--1--1-------------|
--------------5----5--5--|--------------5----5--5--|--------------5----5--5--|


                                                                              
-------------------------|-------------------------|-------------------------|
-------------------------|-------------------------|-------------------------|
--3--3--3--3--0----0--0--|--3--3--3--3--0----0--0--|--3--3--3--3--0----0--0--|
--3--3--3--3--0----0--0--|--3--3--3--3--0----0--0--|--3--3--3--3--0----0--0--|
--1--1--1--1-------------|--1--1--1--1-------------|--1--1--1--1-------------|
--------------5----5--5--|--------------5----5--5--|--------------5----5--5--|


                                                                               
-------------------------|-------------------------|--------------------------|
-------------------------|-------------------------|--------------1----1------|
--3--3--3--3--0----0--0--|--3--3--3--3--0----0--0--|--3--3--3--3--0----0------|
--3--3--3--3--0----0--0--|--3--3--3--3--0----0--0--|--3--3--3--3----------0-0-|
--1--1--1--1-------------|--1--1--1--1-------------|--1--1--1--1--3----3--0-0-|
--------------5----5--5--|--------------5----5--5--|----------------------0-0-|


                        
----------------------||
----------------------||
----------------------||
--2--2--1--2----------||
--2--2--1--2----------||
--2--2--1--2----------||
Comments