Nirvana - I Hate Myself And Want To Die Chords & Tabs

 

I Hate Myself And Want To Die Chords & Tabs

Nirvana Chords & Tabs

Version: 2 Type: Bass Tab 0 ratings
1 star 2 stars 3 stars 4 stars 5 stars
comments

I Hate Myself And Want To Die Bass Tab

Nirvana - I Hate

Verse: play this when the drums come in:
   
G ----------------------------------- Play about 4 times i think.
D ----------------------------------- <-------------------------
A -----------------------------------
E -4--4--4-2-2-1-2--4--4--4-2-2-1-0--

Chorus:

G -------------------
D ------------------- Play about 8 times.
A ------------------- <-----------------
E -3--3--1-1\7-7-7-7-

Play the verse again.
[ Tab from: http://www.guitartabs.cc/tabs/n/nirvana/i_hate_myself_and_want_to_die_btab_ver_2.html ]
Play the chorus again.

During the solo I always play:

G -------------------------- <-------------------
D -------------------------- Play that a couple of  (right before the
A ---------7-----------3---- times and then strum    chorus with the drums)
E -3-3-3-3-----3-3-3-3------ ------------------->        E --4-4--

Play the verse again and then the chorus a final time.

After the last chorus part play:

E -4--4-4-3-2-1-
To end it.
Comments