Nirvana - Here She Comes Now Chords & Tabs

 

Here She Comes Now Chords & Tabs

Nirvana Chords & Tabs

Version: 4 Type: Tab 0 ratings
1 star 2 stars 3 stars 4 stars 5 stars
comments

Here She Comes Now Tab

   
============================
Nirvana - Here She Comes Now
============================

Tabbed by: Ultima

Tuning: Standard (EADGBe)

-INTRO/VERSE (2nd)-

e|----------------------------7-----------5-----|
B|-------7--------7--------7-----7-----5-----5--|
G|----7-----7--7-----7--------------------------|
D|--0-------------------0-----------0-----------|
A|----------------------------------------------|
E|----------------------------------------------|

I find the easiest way to do this is to barre 
the eBG strings at the 5 and 7th frets, and to
lift my third finger off when I need to play the
5s. 

-BRIDGE-

e|----------------------------------------------|
B|-------7--7--7--7-----7--7-----7--------5--5--|
G|----7--------------7--------7-----7--5--------|
D|----------------------------------------------|
A|----------------------------------------------|
E|----------------------------------------------|
[ Tab from: http://www.guitartabs.cc/tabs/n/nirvana/here_she_comes_now_tab_ver_4.html ]
e|----------------------------------------------|
B|-------7--------------------------------------|
G|----7-----7--5--7--7--------7-----7--5--------|
D|----------------------------------------------|
A|----------------------------------------------|
E|----------------------------------------------|

-VERSE (1st, while singing)-

e|----------------------7-----------------------|
B|----------------7--7--7--7--7--7--7--7--7--7--|
G|----0--7--7--7--------7-----------------------|
D|--0-------------------0-----------------------|
A|----------------------------------------------|
E|----------------------------------------------|

e|----------------------------------------------|
B|----------------7--7-----7--7--7--7-----------|
G|----0--7--7--7--------7--------------7--7--5--|
D|--0-------------------------------------------|
A|----------------------------------------------|
E|----------------------------------------------|

The chorus is mostly just improvisation
around these chords:

e|0    e|3    e|X
B|3    B|0    B|X
G|2    G|0    G|7
D|0    D|0    D|8
A|0    A|2    A|8
e|X    e|3    e|6

Being played in that order. The number of strums
for each is pretty much uncountable since it's
very fast strumming and there's two guitars
doing it.
Comments