Nirvana - Here She Comes Now Chords & Tabs

 

Here She Comes Now Chords & Tabs

Nirvana Chords & Tabs

Version: 3 Type: Tab 0 ratings
1 star 2 stars 3 stars 4 stars 5 stars
comments

Here She Comes Now Tab

   
HERE SHE COMES NOW
				
Tuning: Drop D tuned down a 3/4 steps (1/4 higher than CGCFAD) maybe the
recording is slowed down or sped up

MAIN RIFF

D
-------------I----------------------I
----7----7---I------12---------10---I
--7---7----7-I---11----11----9----9-I
0------------I-0-----------0--------I
-------------I----------------------I
-------------I----------------------I

VERSE

D
-------------I
----7----7---I
--7---7----7-I
0------------I
-------------I
-------------I

CHORUS
[ Tab from: http://www.guitartabs.cc/tabs/n/nirvana/here_she_comes_now_tab_ver_3.html ]
D		G   C
--------------I--------------I
3--3-3--3-3---I--------------I
2--2-2--2-2-0-I-----5--5-5---I This is played 2 or 4 times. 
0--0-0--0-0-0-I5--5-5--5-5-0-I
------------0-I5--5-3--3-3-0-I
--------------I5--5----------I

Bb
--------------I-------------I
--------------I-------------I
3--3-3--3-3---I-3--3--3-3-0-I
3--3-3--3-3---I-3--3--3-3-0-I
1--1-1--1-1---I-1--1--1-1-0-I
--------------I-------------I

Then
"HEAVIER" VERSE

D
2--2-2--2-2-2-I
3--3-3--3-3-3-I
2--2-2--2-2-2-I
0--0-0--0-0-0-I
--------------I
--------------I
Comments