Nirvana - Here She Comes Now Chords & Tabs

 

Here She Comes Now Chords & Tabs

Nirvana Chords & Tabs

Version: 2 Type: Tab 0 ratings
1 star 2 stars 3 stars 4 stars 5 stars
comments

Here She Comes Now Tab

   
Here Is the Tabs For This Song "Here She Comes Now"

Normal Tunning
e-B-G-D-A-e

Intro

e------------------------------------------------x3| 
B-----7------7-------------12----------10--------  | 
G---7---7--7---7--7----11-----11-----9----9------  | 
D--0-----------------0------------0--------------  | 
A------------------------------------------------  | 
E------------------------------------------------  | 
[ Tab from: http://www.guitartabs.cc/tabs/n/nirvana/here_she_comes_now_tab_ver_2.html ]
 Verse
 e----------------------x5
 B----------------------
 G----7-7-77----7-7-77--
 D---0---------0--------
 A----------------------
 E----------------------

 Chorus
 e---0-0-0-0-0-0-0---3-3-3-3-3-3---|x3 -----------------------
 B---3-3-3-3-3-3-3---0-0-0-0-0-0---|   -----------------------
 G---2-2-2-2-2-2-2---0-0-0-0-0-0---|   ---7-7-7-7-7-7-7-7-7-7-
 D---0-0-0-0-0-0-0---0-0-0-0-0-0---|   ---8-8-8-8-8-8-8-8-8-8-
 A---0-0-0-0-0-0-0---2-2-2-2-2-2---|   ---8-8-8-8-8-8-8-8-8-8- 
 E-------------------3-3-3-3-3-3---|   ---6-6-6-6-6-6-6-6-6-6-


Intro
Verse
Intro
Chorus
Intro
Verse
Chorus


Well there it goes, have fun with this cool rare song by Nirvana

Need questions?
jpabundez@hotmail.com
Comments