Nirvana - Here She Comes Now Chords & Tabs

 

Here She Comes Now Chords & Tabs

Nirvana Chords & Tabs

Version: 1 Type: Bass Tab

Here She Comes Now Bass Tab

   
-------------------------------------------------------------------------------
		   Here She Comes Now - Nirvana
-------------------------------------------------------------------------------

Tabbed By : SupahFly200
e-mail:

Tuning: Standard

Verse1:
G|---------------------------------------------------------------------------|
D|---------------------------------------------------------------------------|
A|-5~-------5~-------5~55555555(x9)------------------------------------------|
E|---------------------------------------------------------------------------|

The first verse you play very lightly except for the first three notes. Only play the 
of constant notes 9 times.
[ Tab from: http://www.guitartabs.cc/tabs/n/nirvana/here_she_comes_now_btab.html ]
Chorus:
G|--------------|------------------------------------------------------------|
D|---7-7----5-5-|-7777777777777777-------------------------------------------|
A|-55-5-5-------|-5555555555555555-------------------------------------------|
E|--------33-3-3|------------------------------------------------------------|
The number of times the chorus is played is varied except for the fill which is allways 
so listen for that.

Verse2:
G|---------------------------------------------------------------------------|
D|---------------------------------------------------------------------------|
A|-5~555555-55555555(x12)----------------------------------------------------|
E|---------------------------------------------------------------------------|

Verse3:
G|---------------------------------------------------------------------------|
D|---------------------------------------------------------------------------|
A|-5-5-5-55555-5(x16)--------------------------------------------------------|
E|---------------------------------------------------------------------------|
You need to strum this verse and all verses after. I do it right behind the pickups and 
sounds perfect.

I dont know the solo sorry. This song is really fun to play with a band and its got a 
flow. Enjoy.