Nirvana - Heart Shaped Box Chords & Tabs

 

Heart Shaped Box Chords & Tabs

Nirvana Chords & Tabs

Version: 9 Type: Tab 0 ratings
1 star 2 stars 3 stars 4 stars 5 stars
comments

Heart Shaped Box Tab

Have any queston e-mail me at Struggle26@cs.com
 
NOTE: Drop D is not needed, but yes I would recommend it.
 
I did write verson 2 as well, but I think this one is more acurate. 
(You can hear notes better on the live version)

Intro:
E|--------------------------------------------------------|
B|--------------------------------------------------------|
G|-----2-------------------------2------------------------|
D|---2---2-----3-------0-0-----2---2-----3-----3/44-4--0--|
A|-0---------3---3---0--0--0-0---------3---3-------0-33---|
D|---------3-------0-----------------3-------0------------|
Only play this once


Play this through out the song
E|--------------------------------------------------------|
B|--------------------------------------------------------|
G|-----2-------------------------2------------------------|
D|---2---2-----3-------0-0-----2---2-----3-----3/4444--0--|
A|-0---------3---3---0--0--0-0---------3---3-------33-----|
D|---------3-------0-----------------3-------0------------|
[ Tab from: http://www.guitartabs.cc/tabs/n/nirvana/heart_shaped_box_tab_ver_9.html ]
play this in heavy distortion
E|-------------------------------------------------|
B|-------------------------------------------------|
G|------------22-4b----4b---------4b---------------|
D|---4444--0--22----33-----4444--------------------|
A|-------33---00----33---------33------------------|
D|-0----------------33---0-------------------------|
             "HEY" "wAIT"

E|-------------------------------------------------|
B|-------------------------------------------------|
G|-------------------44444b------------------------|
D|--3-3-3-3-3-3-0-55b------3-3-3-3-3-3----4444---0-|
A|--3-3-3-3-3-3-0----------3-3-3-3-3-3---------33--|
D|--3-3-3-3-3-3-0----------3-3-3-3-3-3--0----------|
             "you advice"
(Play the 4s realy fast and bend very far and hard, You don't need to but its fun and 
sounds good)

Solo:
E|-------------------------------------------------|
B|------8b-----7b-----5b-5-3-1-0-------------------|
G|-------------------------------------------------|
D|--7-7----6-6----3-3------------------------------| x2
A|-------------------------------------------------|
D|-------------------------------------------------|

End with this:
E|-------------------------|
B|-------------------------|
G|-------------------------|
D|--4-4-4-4----------------|
A|----------3-3~~~~~-------|
D|-0-----------------------|
Comments