Nirvana - Heart Shaped Box Chords & Tabs

 

Heart Shaped Box Chords & Tabs

Nirvana Chords & Tabs

Version: 8 Type: Tab 0 ratings
1 star 2 stars 3 stars 4 stars 5 stars
comments

Heart Shaped Box Tab

Ok, I have NO clue what some of the people who make tabs are thinking.  
Here's MY version of the song which I learned in five minutes and (to me) sounds 
EXACTLY the way it is on In Utero.

Intro:
Eb-----------------------|-----------|-------------------|
Bb-----------------------|----------*|-------------------|
Gb-----2-----------------|-----------|----------------2--|
Db---2---------3-------0-|---0---0---|--/4-4---4------2--|
Ab-0-----0---3-------0---|-0----0-0-*|-------3---1-1-(2)-|
Db---------3-----3-0-----|-----------|-------------------|
[ Tab from: http://www.guitartabs.cc/tabs/n/nirvana/heart_shaped_box_tab_ver_8.html ]
Verse:
Eb-----------------------|-----------|-----------------|
Bb-----------------------|----------*|-----------------|
Gb-----2-----------------|-----------|-----------------|
Db---2---------3-------0-|---0---0---|--/4-4---4-------|
Ab-0-----0---3-------0---|-0----0-0-*|-------3---1-1/2-|
Db---------3-----3-0-----|-----------|-----------------|
                                       *ends with Dist.
Chorus:
Eb-------------------------------------------------|
Bb------0-------0----------------------------------|
Gb--2-2-4^------4^-------------------2-2-----------|
Db--2-2-----3-3-----0-4-4-4-4--------2-2--3-3--0---|
Ab--0-0-----3-3-----0---------2-2/3--0-0--3-3--0---|
Db----------3-3-----0---------------------3-3--0---|

End Chorus:
Eb-----------------------|
Bb----------------------*|
Gb-------------4^-r4-4^--|
Db--3-3-3--0-------------|
Ab--3-3-3--0------------*|
Db--3-3-3--0-------------|

The solo has been posted enough and I got a gig I'm supposed to be at in an hour, so, 
Laters all!  Remember my band name!  DEAD END!!! 
Comments