Nirvana - Heart Shaped Box Chords & Tabs

 

Heart Shaped Box Chords & Tabs

Nirvana Chords & Tabs

Version: 7 Type: Tab 0 ratings
1 star 2 stars 3 stars 4 stars 5 stars
comments

Heart Shaped Box Tab

Heart shaped box
Nirvan

Note: Drop D tuning is not needed but it does sound a lot better if you use it. I would recommend that you do.


Intro:
E--------------------------------------------------------
B--------------------------------------------------------
G-----2-------------------------2------------------------
D---2---2-----3-------0-0-----2---2-----3-----3/44-4--0--
A-0---------3---3---0--0--0-0---------3---3-------0-33---
D---------3-------0-----------------3-------0------------
Only play this once


Play this through out the song
E--------------------------------------------------------
B--------------------------------------------------------
G-----2-------------------------2------------------------
D---2---2-----3-------0-0-----2---2-----3-----4444--0----
A-0---------3---3---0--0--0-0---------3---3-------33-----
D---------3-------0-----------------3-------0------------
[ Tab from: http://www.guitartabs.cc/tabs/n/nirvana/heart_shaped_box_tab_ver_7.html ]
play this in heavy distortion
E-------------------------------------------------
B-------------------------------------------------
G------------22-4b----4b--------------------------
D---4444--0--22----33-----4444--4-----------------
A-------33---00----33---------33------------------
D-0----------------33---0-------------------------
             "HEY" "wAIT"

E-------------------------------------------------
B-------------------------------------------------
G-------------------------------------------------
D--3-3-3-3-3-3--0--0--0--3-3-3-3-3-3----4444---0--
A--3-3-3-3-3-3--0--0--0--3-3-3-3-3-3---------33---
D--3-3-3-3-3-3--0--0--0--3-3-3-3-3-3--0-----------
             "you advice"


Solo:
E-------------------------------------------------
B------8b-----7b-----5b-5-3-1-0-------------------
G-------------------------------------------------
D--7-7----6-6----3-3------------------------------ x2
A-------------------------------------------------
D-------------------------------------------------
Comments