Nirvana - Heart Shaped Box Chords & Tabs

 

Heart Shaped Box Chords & Tabs

Nirvana Chords & Tabs

Version: 3 Type: Tab 2 ratings
1 star 2 stars 3 stars 4 stars 5 stars
comments

Heart Shaped Box Tab

Band: Nirvana
Song: Heart-Shaped Box
Tabbed by paul-online@gmx.net
Tuning:
Dropped D Tuning

Legend:
^ = Bend Up (However Far You Think)
/ = Slide Up
~= Let Note Ring

Intro:
No Distortion

1|------------------------------------------------------------------------------------------------|-
2|------------------------------------------------------------------------------------------------|-
3|--------2--------------------------------------------2-----------------------------------------|-
4|-----2----0------3------------0------0-------2-2---0------3-------3/4-4----4----4-0--|-
5|--0------------3-----------0------0------0---0-----------3------------------0----3-3-----|-
6|-------------3------3-0----------------------------------3------3-0-------------------------|-

Verse:
The Tabs Here Are Just The Basic Notes Strummed In The Verse. Kurt Changes It A Bit Throughout The Verse, So Just Listen To The Song, You'll Get It.

1|-------------------------------------------------------------------------------------------------|-
2|-------------------------------------------------------------------------------------------------|-
3|--------2------------------------------------------2--------------------------------------------|-
4|-----2----0------3-----------0------0---------2-------3------3/4-4----4------0----------|-
5|--0------------3----------0------0------0---0-------3----------------0----3-3-------------|-
6|-------------3-----3-0------------------------------3-----3-0--------------------------------|-

1|-----------------------------------------|-
2|-----------------------------------------|-
3|-----------------------------------------|-
4|-----------------------------------------|-
5|--0~-----------------------------------|-
6|-------------3~----------0~----------|-

Chorus:
Heavy Distortion
[ Tab from: http://www.guitartabs.cc/tabs/n/nirvana/heart_shaped_box_tab_ver_3.html ]
1|--------------------------------------------------------------------------------------------|-
2|--------------------------------------------------------------------------------------------|-
3|--2-2--4^-------4^-------------------4^--2-2--4^-------4^----------------------4^--|-
4|--2-2------3-3---------4--4---4---------2-2------3-3---------4--4--4--4----------|-
5|--0-0------3-3---------------0---3-------0-0------3-3-----------------------3-------|-
6|------------3-3------0--------------------------------3-3-----0-------------------------|-

1|-------------------------------------------------------------------------|-
2|-------------------------------------------------------------------------|-
3|------------------------------4^-----------------------------------4^--|-
4|--3-3-3-3-3-3-3-3-0-0-----------3-3-3-3-3-3-3-3-0-0-------|-
5|--3-3-3-3-3-3-3-3-0-0-----------3-3-3-3-3-3-3-3-0-0-------|-
6|--3-3-3-3-3-3-3-3-0-0-----------3-3-3-3-3-3-3-3-0-0-------|-

1|----------------------------------------------------|-
2|----------------------------------------------------|-
3|----------------------------------------------------|-
4|--3-3-3-3-3-3-3-3-----3/4-4-4-4-------0--|-
5|--3-3-3-3-3-3-3-3-------------------3-3-----|-
6|--3-3-3-3-3-3-3-3--0-------------------------|-

Solo:
Heavy Distortion & Rotovibe

1|----------------------------------------------------------------------------------------------|-
2|------8^-----6^-----5^-----5-3-1-0-----8^-----6^-----5^-----5-3-1-0---------------|-
3|---------------------------------------------------------------------------------2~---------|-
4|--7-------5-------3--------------------7-------5-------3--------------------2~----------|-
5|-------------------3--------------------------------------3--------------------0~----------|-
6|----------------------------------------------------------------------------------------------|-

1|---------------|-
2|---------------|-
3|--2~---------|-
4|--2~---------|-
5|--0~---------|-
6|---------------|-

Comments