Nirvana - Heart Shaped Box Chords & Tabs

 

Heart Shaped Box Chords & Tabs

Nirvana Chords & Tabs

Version: 10 Type: Tab 0 ratings
1 star 2 stars 3 stars 4 stars 5 stars
comments

Heart Shaped Box Tab

heart-shaped box - in utero - nirvana - kurt cobain - 1993

tuned to Eb but with the Eb dropped to C#, i'm sure i could have phrased that better :/

this is another song by nirvana that i cannot find any rightish tabs for so
i decided to 'go nuts' and tab it myself, w0ot:| 

intro/verse - clean electric

|-------------------------------| |---------------|
|-------------------------------| |---------------|
|-----2-------------------------| |---------------|
|---2---2------3--------0---0---| |-3-3---3-----0-|
|-0----------3---3----0---0---0-| |-----4---2-0---|
|----------3--------0-----------| |---------------|

       she..


DISTORTED


pre chorus         chorus
[ Tab from: http://www.guitartabs.cc/tabs/n/nirvana/heart_shaped_box_tab_ver_10.html ]
|---------------| |------------------------------|
|---------------| |------------------------------|
|---------------| |-2-2-4B-----4B--3-3-3-3-------|
|-3-3-3-3-------| |-2-2----3-3-------------4-2-4-|
|---------4-2-4-| |-0-0----3-3-------------------|
|---------------| |--------3-3-------------------|


                        HEY!    wait!...


solo

|--------------------------------|----|
|-----8B------6B------5B5-3-1-0--|----|
|--------------------------------|-1~-|
|-7-7-----5-5-----3-3------------|----|
|--------------------------------|----|
|--------------------------------|----|

outro

|--------------|
|--------------|
|--------------|
|-3-3-3-3------|
|---------2-2~-|
|--------------|

key - 5B5 = bend fully then bring back to to original note
    - 1~  = let not ring for as long as needed
Comments