Nirvana - Heart Shaped Box Chords & Tabs

 

Heart Shaped Box Chords & Tabs

Nirvana Chords & Tabs

Version: 1 Type: Tab 20 ratings
1 star 2 stars 3 stars 4 stars 5 stars
comments

Heart Shaped Box Tab

   
Heart-Shaped Box
Drop D

Intro
|--------------------------------------------------|
|--------------------------------------------------|
|--------2-----------------------------------------|
|-----2-----2--------3-------------0-----0---------|
|--0--------------3-----3-------0-----0-----0------|
|--------------3------------0----------------------|

|--------------------------------------------------|
|--------------------------------------------------|
|-------2------------------------------------------|
|----2-----2--------3--------3/4--4--4--4----------|
|-0---------------3----3-------------------3--3--5-|
|---------------3----------0-----------------------|
[ Tab from: http://www.guitartabs.cc/tabs/n/nirvana/heart_shaped_box_tab.html ]
Chorus
|------------------------|
|------------------------|
|-2--2---4^-----------4^-|
|-2--2---------3--3------|
|-0--0---------3--3------|
|--------------3--3------|

|------------------------|
|------------------------|
|-------------------4^---|
|-0--4--4-----4----------|
|----------0-----3-------|
|------------------------|
("your advice... your advice")

|-------------------------------|
|-------------------------------|
|------------------------4^4^4^-|
|-3-3-3-3-3-3-3-3-0-0-0---------|
|-3-3-3-3-3-3-3-3-0-0-0---------|
|-3-3-3-3-3-3-3-3-0-0-0---------|

Solo
|--------------------------------|
|---8^-7-----6^-5-----5^-5-3-1-0-|
|------------------3-------------|
|-7--------5-------3-------------| (Repeat)
|--------------------------------|
|--------------------------------|
Comments