Nirvana - Heart Shaped Box Chords & Tabs

 

Heart Shaped Box Chords & Tabs

Nirvana Chords & Tabs

Version: 3 Type: Bass Tab 0 ratings
1 star 2 stars 3 stars 4 stars 5 stars
comments

Heart Shaped Box Bass Tab

   
I haven't decided if this song sounds better in standard tuning or Drop D.
I'm thinking Drop D.  But it still sounds good in standard, so either or.

/=SLIDE
b=BEND

INTRO:
G-------------------
D-------------------   PLAY 2 TIMES
A-------------------
E-7---3---0---------

VERSE:
G--------------------
D--------------------  REPEAT 8 TIMES
A--------------------
E-777--333--00000000-
[ Tab from: http://www.guitartabs.cc/tabs/n/nirvana/heart_shaped_box_btab_ver_3.html ]
CHORUS:
G--------------------
D-------------------- PLAY 6 TIMES
A----9b---5b---------
E-77---33---77777777-

CHORUS ENDING:
G---------------
D---------------   PLAY 2 TIMES
A---------------
E-33333333/7-(LET IT RING OUT)

BRIDGE:
G-------------------------
D-------------------------  PLAY 2 TIMES
A----9b---7b---5b---------
E-77---55----33---9-7-5-3-


INTRO - 2X
VERSE 1 - 8X
CHORUS - 6X
CHORUS ENDING - 2X
VERSE 2 - 8X
CHOURS - 6X
CHORUS ENDING - 2X
BRIDGE - 2X
VERSE 3 - 10X
CHORUS - 6X
CHOURS ENDING - 4X

There you go.  A song from one of the greatest bands,if not the greatest, ever.  Enjoy.
Comments