Nirvana - Grey Goose Chords & Tabs

 

Grey Goose Chords & Tabs

Nirvana Chords & Tabs

Version: 2 Type: Tab 0 ratings
1 star 2 stars 3 stars 4 stars 5 stars
comments

Grey Goose Tab

grey goose by nirvana

with the lights out
--------------------------------------
this is an instrumental song by nirvana off the boxset.  kinda fun to play, especially
when sped up.  its just basically one riff but its improvised later on.  standard tunin

--------------------------------------

[ Tab from: http://www.guitartabs.cc/tabs/n/nirvana/grey_goose_tab_ver_2.html ]
e|-----------------------------------------------|
B|-----------------------------------------------|
G|-----------------------------------------------|
D|------------6-7--------------------------------|
A|--5-6-7~~~7------------------------------------|
E|7---------------7~~~---------------------------|

then later on kurdt adds...

e|-----------------------------------------------|
B|-----------------------------------------------|
G|-------------------7^--------------------------|
D|------------6-7------9-7-9---------------------|
A|--5-6-7~~~7------------------------------------|
E|7---------------7~~----------------------------|

ik its a weak tab but its my first and i was a bit lazy. its easy to figure out on your own tho.  enjoy


`pdawg^;>
 ||  ||
Comments