Nirvana - Frances Farmer Will Have Her Revenge On Seattle Chords & Tabs

 

Frances Farmer Will Have Her Revenge On Seattle Chords & Tabs

Nirvana Chords & Tabs

Version: 4 Type: Tab 0 ratings
1 star 2 stars 3 stars 4 stars 5 stars
comments

Frances Farmer Will Have Her Revenge On Seattle Tab

   
Frances Farmer Will Have Her Revenge On Seattle - Nirvana
---------------------------------------------------------
Tabbed by: Dave "Delirium" W.
Email: i.am@the-police.com
Tuning: Drop D

[/]: Slide
[~]: Let ring
[.]: Palm Mute
[h]: Hammer on

Nirvana obviously played this song using more than one guitar, but here's how 
to play it well and easily using only one guitar. 
The other tabs here don't sound right to me...

Play the whole thing with distortion.


Intro
e|-------------------------------------------------|
b|-------------------------------------------------|
g|-------------------------------------------------|
d|-5-5-5-5-5-5-5-5/1-1-1-1-4-4-4-4/1-1-1-1-4-4-4-4-| } [x2]
a|-5-5-5-5-5-5-5-5/1-1-1-1-4-4-4-4/1-1-1-1-4-4-4-4-|
d|-5-5-5-5-5-5-5-5/1-1-1-1-4-4-4-4/1-1-1-1-4-4-4-4-|
   ...............................................

If you listen to the song carefully, you will notice kurt relaxed the palm muting 
a bit towards the end of the riff, and continues to do it on every verse.

End Intro
e|-------------------------------------------------|
b|-------------------------------------------------|
g|-------------------------------------------------|
d|-8-8-8-8-8-8-8-8-8-8-8-8--1-h3-h4----------------|
a|-8-8-8-8-8-8-8-8-8-8-8-8--1-h3-h4----------------|
d|-8-8-8-8-8-8-8-8-8-8-8-8--1-h3-h4----------------|


Verse
e|-------------------------------------------------|
b|-------------------------------------------------|
g|-------------------------------------------------|
d|-5-5-5-5-5-5-5-5/1-1-1-1-4-4-4-4/1-1-1-1-4-4-4-4-|
a|-5-5-5-5-5-5-5-5/1-1-1-1-4-4-4-4/1-1-1-1-4-4-4-4-|
d|-5-5-5-5-5-5-5-5/1-1-1-1-4-4-4-4/1-1-1-1-4-4-4-4-| }
   ...............................................   } [x2]
e|-------------------------------------------------| }
b|-------------------------------------------------|
g|-------------------------------------------------|
d|-8-8-8-8-8-8-8-8-8-8-8-8--1-h3-h4----------------|
a|-8-8-8-8-8-8-8-8-8-8-8-8--1-h3-h4----------------|
d|-8-8-8-8-8-8-8-8-8-8-8-8--1-h3-h4----------------|

e|-------------------------------------------------|
b|-------------------------------------------------|
g|-------------------------------------------------|
d|-5-5-5-5-5-5-5-5/1-1-1-1-4-4-4-4/1-1-1-1-4-4-4-4-|
a|-5-5-5-5-5-5-5-5/1-1-1-1-4-4-4-4/1-1-1-1-4-4-4-4-|
d|-5-5-5-5-5-5-5-5/1-1-1-1-4-4-4-4/1-1-1-1-4-4-4-4-|
   ...............................................
e|-------------------------------------------------|
b|-------------------------------------------------|
g|-------------------------------------------------|
d|-8-8-8-8-8-8-8-8-8-8-8-8-------------------------|
a|-8-8-8-8-8-8-8-8-8-8-8-8-------------------------|
d|-8-8-8-8-8-8-8-8-8-8-8-8-------------------------|


Chorus
e|-------------------------------------------------------------------|
b|-------------------------------------------------------------------|
g|-------------------------------------------------------------------|
d|-10-10-10-10-10-10-10/13-13-13-13-11-11-11-8-8-8-8-8-8-8-8-8-8-8-8-|[x3]
a|-10-10-10-10-10-10-10/13-13-13-13-11-11-11-8-8-8-8-8-8-8-8-8-8-8-8-|
d|-10-10-10-10-10-10-10/13-13-13-13-11-11-11-8-8-8-8-8-8-8-8-8-8-8-8-|

e|-------------------------------------------------------------------|
b|-------------------------------------------------------------------|
g|-------------------------------------------------------------------|
d|-6-6-6-6-6-6-6-6-8-8-8-8-8-8-8-8-6-6-6-6-6-6-6-6-4-4-4-4-4-4-4-4---|
a|-6-6-6-6-6-6-6-6-8-8-8-8-8-8-8-8-6-6-6-6-6-6-6-6-4-4-4-4-4-4-4-4---|
d|-6-6-6-6-6-6-6-6-8-8-8-8-8-8-8-8-6-6-6-6-6-6-6-6-4-4-4-4-4-4-4-4---|

e|-------------------------------------------------------------------|
b|-------------------------------------------------------------------|
g|-------------------------------------------------------------------|
d|-3-3-3-3-3-3-3-3---------------------------------------------------|
a|-3-3-3-3-3-3-3-3---------------------------------------------------|
d|-3-3-3-3-3-3-3-3---------------------------------------------------|
   ...............


Verse
e|-------------------------------------------------|
b|-------------------------------------------------|
g|-------------------------------------------------|
d|-5-5-5-5-5-5-5-5/1-1-1-1-4-4-4-4/1-1-1-1-4-4-4-4-|
a|-5-5-5-5-5-5-5-5/1-1-1-1-4-4-4-4/1-1-1-1-4-4-4-4-|
d|-5-5-5-5-5-5-5-5/1-1-1-1-4-4-4-4/1-1-1-1-4-4-4-4-| }
   ...............................................   } [x2]
e|-------------------------------------------------| }
b|-------------------------------------------------|
g|-------------------------------------------------|
d|-8-8-8-8-8-8-8-8-8-8-8-8--1-h3-h4----------------|
a|-8-8-8-8-8-8-8-8-8-8-8-8--1-h3-h4----------------|
d|-8-8-8-8-8-8-8-8-8-8-8-8--1-h3-h4----------------|
[ Tab from: http://www.guitartabs.cc/tabs/n/nirvana/frances_farmer_will_have_her_revenge_on_seattle_tab_ver_4.html ]
e|-------------------------------------------------|
b|-------------------------------------------------|
g|-------------------------------------------------|
d|-5-5-5-5-5-5-5-5/1-1-1-1-4-4-4-4/1-1-1-1-4-4-4-4-|
a|-5-5-5-5-5-5-5-5/1-1-1-1-4-4-4-4/1-1-1-1-4-4-4-4-|
d|-5-5-5-5-5-5-5-5/1-1-1-1-4-4-4-4/1-1-1-1-4-4-4-4-|
   ...............................................
e|-------------------------------------------------|
b|-------------------------------------------------|
g|-------------------------------------------------|
d|-8-8-8-8-8-8-8-8-8-8-8-8-------------------------|
a|-8-8-8-8-8-8-8-8-8-8-8-8-------------------------|
d|-8-8-8-8-8-8-8-8-8-8-8-8-------------------------|


Chorus
e|-------------------------------------------------------------------|
b|-------------------------------------------------------------------|
g|-------------------------------------------------------------------|
d|-10-10-10-10-10-10-10/13-13-13-13-11-11-11-8-8-8-8-8-8-8-8-8-8-8-8-|[x3]
a|-10-10-10-10-10-10-10/13-13-13-13-11-11-11-8-8-8-8-8-8-8-8-8-8-8-8-|
d|-10-10-10-10-10-10-10/13-13-13-13-11-11-11-8-8-8-8-8-8-8-8-8-8-8-8-|

e|-------------------------------------------------------------------|
b|-------------------------------------------------------------------|
g|-------------------------------------------------------------------|
d|-6-6-6-6-6-6-6-6-8-8-8-8-8-8-8-8-6-6-6-6-6-6-6-6-4-4-4-4-4-4-4-4---|
a|-6-6-6-6-6-6-6-6-8-8-8-8-8-8-8-8-6-6-6-6-6-6-6-6-4-4-4-4-4-4-4-4---|
d|-6-6-6-6-6-6-6-6-8-8-8-8-8-8-8-8-6-6-6-6-6-6-6-6-4-4-4-4-4-4-4-4---|

e|-------------------------------------------------------------------|
b|-------------------------------------------------------------------|
g|-------------------------------------------------------------------|
d|-3-3-3-3-----------------------------------------------------------|
a|-3-3-3-3-----------------------------------------------------------|
d|-3-3-3-3-----------------------------------------------------------|
   .......


Interlude
e|-------------------------------------------------------------------|
b|-------------------------------------------------------------------|
g|-------------------------------------------------------------------|
d|--------------------------------------9-9-9-9-9-9-9----------------|[x3]
a|-5-5-5/13-13-5-5-5/13-13-5-5-5/13-13--9-9-9-9-9-9-9-10-10-10-9-7-4-|
d|-5-5-5/13-13-5-5-5/13-13-5-5-5/13-13--9-9-9-9-9-9-9-10-10-10-9-7-4-|

e|-------------------------------------------------------------------|
b|-------------------------------------------------------------------|
g|-------------------------------------------------------------------|
d|5~-----3~-1~-0--0-0-0-0-0--1-h3-h4---------------------------------|
a|5~-7-5-3~-1~-0--0-0-0-0-0--1-h3-h4---------------------------------|
d|5~-7-5-3~-1~-0--0-0-0-0-0--1-h3-h4---------------------------------|
                  .........

This part is not a solo. They definitely played this with more than one guitar...
It is not very accurate, it's just how I play the interlude. Listen to the song carefully
and maybe you can come up with a better sounding version.


Verse
e|-------------------------------------------------|
b|-------------------------------------------------|
g|-------------------------------------------------|
d|-5-5-5-5-5-5-5-5/1-1-1-1-4-4-4-4/1-1-1-1-4-4-4-4-|
a|-5-5-5-5-5-5-5-5/1-1-1-1-4-4-4-4/1-1-1-1-4-4-4-4-|
d|-5-5-5-5-5-5-5-5/1-1-1-1-4-4-4-4/1-1-1-1-4-4-4-4-| }
   ...............................................   } [x2]
e|-------------------------------------------------| }
b|-------------------------------------------------|
g|-------------------------------------------------|
d|-8-8-8-8-8-8-8-8-8-8-8-8--1-h3-h4----------------|
a|-8-8-8-8-8-8-8-8-8-8-8-8--1-h3-h4----------------|
d|-8-8-8-8-8-8-8-8-8-8-8-8--1-h3-h4----------------|

e|-------------------------------------------------|
b|-------------------------------------------------|
g|-------------------------------------------------|
d|-5-5-5-5-5-5-5-5/1-1-1-1-4-4-4-4/1-1-1-1-4-4-4-4-|
a|-5-5-5-5-5-5-5-5/1-1-1-1-4-4-4-4/1-1-1-1-4-4-4-4-|
d|-5-5-5-5-5-5-5-5/1-1-1-1-4-4-4-4/1-1-1-1-4-4-4-4-|
   ...............................................
e|-------------------------------------------------|
b|-------------------------------------------------|
g|-------------------------------------------------|
d|-8-8-8-8-8-8-8-8-8-8-8-8-------------------------|
a|-8-8-8-8-8-8-8-8-8-8-8-8-------------------------|
d|-8-8-8-8-8-8-8-8-8-8-8-8-------------------------|


Chorus/Outro
e|-------------------------------------------------------------------|
b|-------------------------------------------------------------------|
g|-------------------------------------------------------------------|
d|-10-10-10-10-10-10-10/13-13-13-13-11-11-11-8-8-8-8-8-8-8-8-8-8-8-8-|[x3]
a|-10-10-10-10-10-10-10/13-13-13-13-11-11-11-8-8-8-8-8-8-8-8-8-8-8-8-|
d|-10-10-10-10-10-10-10/13-13-13-13-11-11-11-8-8-8-8-8-8-8-8-8-8-8-8-|

e|-------------------------------------------------------------------|
b|-------------------------------------------------------------------|
g|-------------------------------------------------------------------|
d|-6-6-6-6-6-6-6-6-8-8-8-8-8-8-8-8-6-6-6-6-6-6-6-6-4-4-4-4-4-4-4-4---|
a|-6-6-6-6-6-6-6-6-8-8-8-8-8-8-8-8-6-6-6-6-6-6-6-6-4-4-4-4-4-4-4-4---|
d|-6-6-6-6-6-6-6-6-8-8-8-8-8-8-8-8-6-6-6-6-6-6-6-6-4-4-4-4-4-4-4-4---|

e|-------------------------------------------------------------------|
b|-------------------------------------------------------------------|
g|-------------------------------------------------------------------|
d|-3-3-3-3-3-3-3-3--3/18-Bend>19-------------------------------------|
a|-3-3-3-3-3-3-3-3--3/18-Bend>19-------------------------------------|
d|-3-3-3-3-3-3-3-3--3/18-Bend>19-------------------------------------|
   ...............
Comments