Nirvana - Frances Farmer Will Have Her Revenge On Seattle Chords & Tabs

 

Frances Farmer Will Have Her Revenge On Seattle Chords & Tabs

Nirvana Chords & Tabs

Version: 3 Type: Tab 0 ratings
1 star 2 stars 3 stars 4 stars 5 stars
comments

Frances Farmer Will Have Her Revenge On Seattle Tab

   
----------------------------------------------------------------------------
Frances Farmer Will Have Her Revenge On Seatle - Nirvana
----------------------------------------------------------------------------
Tabbed by: Lazlow...
Email: dudeinwrens@hotmail.com

Tuning:Drop D ( DADGBE )

Clean w/ heavy palm muting...listen to song and let up when you should..
e|----------------------------------------------------------------|
B|----------------------------------------------------------------|
G|---5-5-5-5-5-5-5-5-1-1-1-1-4-4-4-4-1-1-1-1--4-4-4-4-------------|   X2
D|---5-5-5-5-5-5-5-5-1-1-1-1-4-4-4-4-1-1-1-1--4-4-4-4-------------|
A|---5-5-5-5-5-5-5-5-1-1-1-1-4-4-4-4-1-1-1-1--4-4-4-4-------------|
D|---5-5-5-5-5-5-5-5-1-1-1-1-4-4-4-4-1-1-1-1--4-4-4-4-------------|
  PM.........................................................

Crank in the distortion for this... and ... no palm muting... just beat it..
e|----------------------------------------------------------------|
B|----------------------------------------------------------------|
G|-8-8-8-8-8-8-8-8-8-8-8-8----------------------------------------|
D|-8-8-8-8-8-8-8-8-8-8-8-8----------------------------------------|
A|-8-8-8-8-8-8-8-8-8-8-8-8----------------------------------------|
D|-8-8-8-8-8-8-8-8-8-8-8-8----------------------------------------|

e|----------------------------------------------------------------|
B|----------------------------------------------------------------|
G|---5-5-5-5-5-5-5-5-1-1-1-1-4-4-4-4-1-1-1-1--4-4-4-4-------------|   
D|---5-5-5-5-5-5-5-5-1-1-1-1-4-4-4-4-1-1-1-1--4-4-4-4-------------|
A|---5-5-5-5-5-5-5-5-1-1-1-1-4-4-4-4-1-1-1-1--4-4-4-4-------------|
D|---5-5-5-5-5-5-5-5-1-1-1-1-4-4-4-4-1-1-1-1--4-4-4-4-------------|
  PM.........................................................

Crank in the distortion for this... and ... no palm muting... just beat it..
e|----------------------------------------------------------------|
B|----------------------------------------------------------------|
G|-8-8-8-8-8-8-8-8-8-8-8-8----------------------------------------|
D|-8-8-8-8-8-8-8-8-8-8-8-8----------------------------------------|
A|-8-8-8-8-8-8-8-8-8-8-8-8----------------------------------------|
D|-8-8-8-8-8-8-8-8-8-8-8-8----------------------------------------|

Repeat the above part 3 times... on the third time.. the first part is different...
it is Kurt strumming and then muting and some feedback comes into play.. figure it
out yourself...I don't have the time... 

[ Tab from: http://www.guitartabs.cc/tabs/n/nirvana/frances_farmer_will_have_her_revenge_on_seattle_tab_ver_3.html ]
Chorus - Distortion...................go wild...
e|------------------------------------------------------------------|
B|------------------------------------------------------------------|
G|-10-10-10-10-10-10-10-10/11-11-11-11-11-11-11-11\8-8-8-8-8-8-8-8--|
D|-10-10-10-10-10-10-10-10/11-11-11-11-11-11-11-11\8-8-8-8-8-8-8-8--|
A|-10-10-10-10-10-10-10-10/11-11-11-11-11-11-11-11\8-8-8-8-8-8-8-8--|
D|-10-10-10-10-10-10-10-10/11-11-11-11-11-11-11-11\8-8-8-8-8-8-8-8--|

e|------------------------------------------------------------------|
B|------------------------------------------------------------------|
G|-10-10-10-10-10-10-10-10/11-11-11-11-11-11-11-11\8-8-8-8-8-8-8-8--|
D|-10-10-10-10-10-10-10-10/11-11-11-11-11-11-11-11\8-8-8-8-8-8-8-8--|
A|-10-10-10-10-10-10-10-10/11-11-11-11-11-11-11-11\8-8-8-8-8-8-8-8--|
D|-10-10-10-10-10-10-10-10/11-11-11-11-11-11-11-11\8-8-8-8-8-8-8-8--|

e|------------------------------------------------------------------|
B|------------------------------------------------------------------|
G|-10-10-10-10-10-10-10-10/11-11-11-11-11-11-11-11\8-8-8-8-6-6-6-6--|
D|-10-10-10-10-10-10-10-10/11-11-11-11-11-11-11-11\8-8-8-8-6-6-6-6--|
A|-10-10-10-10-10-10-10-10/11-11-11-11-11-11-11-11\8-8-8-8-6-6-6-6--|
D|-10-10-10-10-10-10-10-10/11-11-11-11-11-11-11-11\8-8-8-8-6-6-6-6--|

e|------------------------------------------------------------------|
B|------------------------------------------------------------------|
G|-8-8-8-8-6-6-6-6-4-4-4-4-4-4-4-4-3-3-3-3-3-3-3-3-3-3-3-3----------|
D|-8-8-8-8-6-6-6-6-4-4-4-4-4-4-4-4-3-3-3-3-3-3-3-3-3-3-3-3----------|
A|-8-8-8-8-6-6-6-6-4-4-4-4-4-4-4-4-3-3-3-3-3-3-3-3-3-3-3-3----------|
E|-8-8-8-8-6-6-6-6-4-4-4-4-4-4-4-4-3-3-3-3-3-3-3-3-3-3-3-3----------|

And thats pretty much it... I know I know.. what about the solo?... it comes in after
the chorus the second time... Can I play it? Of course.. .am I going to tab it out?
.... NO!.. look... if you want to just.. play some solo...something that fits.. play
notes in the Bb pentatonic scale... or.. one of these notes...

e|-6-----9----11---|
B|-6-----9----11---|
G|-6---8-9-10------|
D|-6---8-----------|  This is the scale.. with it tuned in Drop D... so.. 
A|-6-7-8-----------|  mess around with all them.. and make your own solo...
D|-----8------11---|


Peace niggaz...

| /  slide up
| \  slide down
| h  hammer-on
| p  pull-off
| ~  vibrato
| +  harmonic
| x  Mute note
==========================================================================
Comments