Nirvana - Floyd The Barber Chords & Tabs

 

Floyd The Barber Chords & Tabs

Nirvana Chords & Tabs

Version: 7 Type: Tab 0 ratings
1 star 2 stars 3 stars 4 stars 5 stars
comments

Floyd The Barber Tab

Yo if you've got anything wrong with this tab or if i missed somtin tell me
and I'll do better next time e-mail me at Cal_C1@hotmail.com 

IT IS MEANT TO BE IN DROP D TUNEING BUT IT SOUNDS GOOD ON E AS WELL!!!

INTRO + VERSE + OUTRO
[ Tab from: http://www.guitartabs.cc/tabs/n/nirvana/floyd_the_barber_tab_ver_7.html ]
E---------------------
B---------------------
G---------------------Just this is played during the intro, verse and outro
D--3-3--2-2-2---------
A--3-3--2-2-2---------
E--1-1--0-0-0---------


CHOURUS

E-------------------
B-------------------
G--6---5------------Play this however many times
D--6-7-5-6----------
A--4-7-3-6----------
E----5---4----------


SOLO

E----------------------------------
B----------------------------------
G----------------------------------Play this i think 4 times
D----------------------------------
A---------0-1-3-3-1-0--------------
E-1-1-0-1--------------3--1-1-0-1--
Comments