Nirvana - Floyd The Barber Chords & Tabs

 

Floyd The Barber Chords & Tabs

Nirvana Chords & Tabs

Version: 5 Type: Bass Tab 0 ratings
1 star 2 stars 3 stars 4 stars 5 stars
comments

Floyd The Barber Bass Tab

   
Band: Nirvana
Song: Floyd the Barber
Tabber: Ricky D.
Tunnig: 1/2 step down (Eb Ab Db Gb)

So this is another of Sir Bobbo's tabs.  I just registered as brokin kondem
so yea.  I also just got gmail so email any corrections there.
pissbottleman@gmail.com


Guitar once first start at:

 Intro: x1
G|-----|
D|-----|
A|-----|
E|-000-|

 Verse:
G|-------------|
D|-------------|
A|-------------|
E|-0h1-0h1-000-|
[ Tab from: http://www.guitartabs.cc/tabs/n/nirvana/floyd_the_barber_btab_ver_5.html ]
 Chorus: x2            x1                   x1
G|-------------------||-------------------||---------------------|
D|-------------------||-------------------||---------------------|
A|-440-----33--------||-440-----33--------||-440-----33----------|
E|------55----44-440-||-----555----44-440-||-----555----44444440-|

 Solo: x3                           x1
G|--------------------------------||--------------------------------| 
D|--------------------------------||--------------------------------|
A|-----------------1h3-3-1--3-1-0-||-----------------1h3-3-1-3-1----|
E|---1-1-1--0-1-0-----------------||---1-1-1--0-1-0---------------0-|


ORDER:
Intro:
Verse: x21
Chorus:
Verse: x14
Chorus:
Solo:
Chorus:
Verse: x2
Comments