Nirvana - Floyd The Barber Chords & Tabs

 

Floyd The Barber Chords & Tabs

Nirvana Chords & Tabs

Version: 1 Type: Bass Tab 0 ratings
1 star 2 stars 3 stars 4 stars 5 stars
comments

Floyd The Barber Bass Tab

Song:Floyd The Barber
Artist:Nirvana
Album:Bleach
Tabbed by Jon Rooop
Corrected by Freak

Verse
G|----------------------------------------------------------------------
D|----------------------------------------------------------------------
A|----------------------------------------------------------------------
E|--2--2-0-0-0----2--2-0-0-0----2--2-0-0-0----2--2-0000-----------------
[ Tab from: http://www.guitartabs.cc/tabs/n/nirvana/floyd_the_barber_btab.html ]
Chorus
G|----------------------------------------------------------------------
D|----------------------------------------------------------------------
A|-3-3-----2-2----------------------------------------------------------
E|-----4-4-----3-3------------------------------------------------------

Bridge
G|---------------------------------------------------------------------
D|---------------------------------------------------------------------
A|------------1-2-3-3-1-0-1-3------------------------------------------
E|-2---2---2-3---------------------------------------------------------

listen the music to get the order

Any questions/corrections/suggestions? Mail me.
faget@jedi.mailbr.com. 

Comments