Nirvana - Even In His Youth Chords & Tabs

 

Even In His Youth Chords & Tabs

Nirvana Chords & Tabs

Version: 2 Type: Bass Tab 0 ratings
1 star 2 stars 3 stars 4 stars 5 stars
comments

Even In His Youth Bass Tab

Even in his youth
By Nirvana
 
I've finally got my tab
totally correct
so here is the CORRECT version  
 
this vesion is from the Smells Like Teen Spirit Single 
Main riff
|--------------------------------|
|--------------------------------|
|---3---------3------------------|
|-----3-4-4-3---3-4-4-3----------|
 
Chorus
|--------------------------------||--------------------------------|
|--------------------------------||--------------------------------|
|---------3--3-3--------5--5-5---||---7-7-7-3-3-3-10-10-10-5-5-5---|
|---0-0-0--------3--3-3----------||--------------------------------|x2
 
End of chorus
|---------------------7-----------|---------------------|
|--------------7-8-9----9-8-7-----|---------------------|
|--------7-8-9----------------9-8-|-----------3---------|
|---7-10--------------------------|-8-3-4-4-3---3-4-4-3-|then back to main part
 
Other Version
Its almost the same except the end of the chorus
 
Main riff
|--------------------------------|
|--------------------------------|
|---3---------3------------------|
|-----3-4-4-3---3-4-4-3----------|
 
Chorus
|--------------------------------|
|--------------------------------|
|---------3--3-3--------5--5-5---|
|---0-0-0--------3--3-3----------|
 
End of chorus
 
|---------------------7--------------|---------------------|
|-----------------------9-8-7--------|---------------------|
|-----------------------------9-8----|-----------3---------|
|---7-7-7-7-7-7-7-7-7----------------|-8-3-4-4-3---3-4-4-3-|
 
Tabbed by Jay

[ Tab from: http://www.guitartabs.cc/tabs/n/nirvana/even_in_his_youth_btab_ver_2.html ]
Comments