Nirvana - Endless Nameless Chords & Tabs

 

Endless Nameless Chords & Tabs

Nirvana Chords & Tabs

Version: 3 Type: Bass Tab 0 ratings
1 star 2 stars 3 stars 4 stars 5 stars
comments

Endless Nameless Bass Tab

This is from the live version I heard on the Nirvana Box which came out recently. 
it may be different to the album version, this sounds 100% correct if you listen to the CD.
[ Tab from: http://www.guitartabs.cc/tabs/n/nirvana/endless_nameless_btab_ver_3.html ]
G---------------------------------|
D---------------------------------|
A---------------------------------|
E-0-0-0-0-0-0-0-0-0-0-0-0-0-0-0---|

Chorus (quiet part)

G-----------------------------|
D-----------------------------|
A---3---3---2-------2-------2-| Play once then
E-1---1---3---0---0---0---0---|

G----------------------------------|
D----------------------------------| x7
A---3---3-------2-------2-------2--|
E-1---1---3---1---0---0---0---0----|
Comments