Nirvana - Dumb Chords & Tabs

 

Dumb Chords & Tabs

Nirvana Chords & Tabs

Version: 5 Type: Tab 0 ratings
1 star 2 stars 3 stars 4 stars 5 stars
comments

Dumb Tab

NIRVANA
Dumb-In Utero
Words and music by Kurt Cobain 

VERSE
e----------------------------------------------------------------------------
G----------------2--------------------5------------------2------------------5
B-------2--------2-----------5--------5---------2--------2---------5--------5
D-------2------2-------------5------5-----------2---2--2-----------5------5--
A---2--------0----------5---------3---------2-------0---------5---------3----
E---0------0--------0---3-------0-------0---0-----0-------0---3-------0------

e----------------------------------------------------------------------------
G----------------2--------------------5------------------2--------------5-5-0
B-------2--------2-----------5--------5---------2--------2--------5-----5-5-0
D-------2------2-------------5------5-----------2------2----------5---5-5-5-0
A---2--------0----------5---------3---------2-------0---------5--------------
E-0-0------0--------0---3-------0-------0---0-----0-------0---3------0-------

CHORUS
e----------------------------------------------------------------------------
G----------------------------------------------------------------------------
B----------------------------------------------------------------------------
D----------------------------------------------------------------------------
A----7----7-----10-9-7----------7----------7-------10-9-7--------------------
E----------------------10---------------------------------10-----7-7-7--7-5--

e------------0----0--0------3-----3-----3--3-------------0----0-0---------3--
G------------0----0--0--0---0-----0-----0--0--0----------0----0-0-0-----0-0-0
B------------2----2-----0---0--0--0-----0--0--0----------X------X-0-----0-0-0
D-----------------------0---0--0--0--------0--0---2------2------2-0--0--0-0-0
A----2----------------------X--X--X--------X------2------2------2---------X-X
E----0----------------------3--3--3--------3------0------0------0----3----3-3

e---------------------------------------------------------------------------
G-0-------------------------------------------------------------------------
B-0-------------------------------------------------------------------------
D-0-------------------------------------------------------------------------
A-----7------10-9-7-----------7-----------7---------10-9-7------------------
E-------------------10-----------------10------------------10-----7---7---5-

e---------------0-0-----3-----3----3-3---------------0-0---3-----------------
G----------0----0-0-----0-----0----0-0--0--------0---0-0---0---0-------0-----
B----------X------X--0--0-----0----0-0--0--------X-----X-0-0---0-------0--0-0
D---2------2------2--0--0--0--0------0--0--------2-----2-0-0-----------0--0-0
A---2------2------2-----X--X--X------X-----2-----2-----2---X-----------X--X--
E---0----0-0------0-----3--3--3------3-----0---0-0-----0---3------3-7--7--7--

VERSE
e----------------------------------------------------------------------------
G----------------2--------------------5------------------2------------------5
B-------2--------2-----------5--------5---------2--------2---------5--------5
D-------2------2-------------5------5-----------2---2--2-----------5------5--
A---2--------0----------5---------3---------2-------0---------5---------3----
E---0------0--------0---3-------0-------0---0-----0-------0---3-------0------

e----------------------------------------------------------------------------
G----------------2--------------------5------------------2--------------5-5-0
B-------2--------2-----------5--------5---------2--------2--------5-----5-5-0
D-------2------2-------------5------5-----------2------2----------5---5-5-5-0
A---2--------0----------5---------3---------2-------0---------5--------------
E-0-0------0--------0---3-------0-------0---0-----0-------0---3------0-------
CHORUS
e----------------------------------------------------------------------------
G----------------------------------------------------------------------------
B----------------------------------------------------------------------------
D----------------------------------------------------------------------------
A----7----7-----10-9-7----------7----------7-------10-9-7--------------------
E----------------------10---------------------------------10-----7-7-7--7-5--

e------------0----0--0------3-----3-----3--3-------------0----0-0---------3--
G------------0----0--0--0---0-----0-----0--0--0----------0----0-0-0-----0-0-0
B------------2----2-----0---0--0--0-----0--0--0----------X------X-0-----0-0-0
D-----------------------0---0--0--0--------0--0---2------2------2-0--0--0-0-0
A----2----------------------X--X--X--------X------2------2------2---------X-X
E----0----------------------3--3--3--------3------0------0------0----3----3-3

e---------------------------------------------------------------------------
G-0-------------------------------------------------------------------------
B-0-------------------------------------------------------------------------
D-0-------------------------------------------------------------------------
A-----7------10-9-7-----------7-----------7---------10-9-7------------------
E-------------------10-----------------10------------------10-----7---7---5-
[ Tab from: http://www.guitartabs.cc/tabs/n/nirvana/dumb_tab_ver_5.html ]
e---------------0-0-----3-----3----3-3---------------0-0---3-----------------
G----------0----0-0-----0-----0----0-0--0--------0---0-0---0---0-------0-----
B----------X------X--0--0-----0----0-0--0--------X-----X-0-0---0-------0--0-0
D---2------2------2--0--0--0--0------0--0--------2-----2-0-0-----------0--0-0
A---2------2------2-----X--X--X------X-----2-----2-----2---X-----------X--X--
E---0----0-0------0-----3--3--3------3-----0---0-0-----0---3------3-7--7--7--


BRIDGE
e----------------------------------------------------------------------------
G----------------------------------------------------------------------------
B------------------------------------------------------14----14--12---12-----
D---9--------9-9-9--10-------------9-9------14-------------------------------
A----------------------------------------------------------------------------
E----------------------------------------------------------------------------

e----------------------------------------------------------------------------
G----4--4-4---4-4----5----5-5----5-5-----4---4-4----4-4---5----5-5----5--5---
B----4--4-4---4-4--0-5----5-5----5-5-----4---4-4----4-4---5----5-5----5--5---
D----4--4-4---4-4--0-5----5-5----5-5--X--4---4-4----4-4-X-5----5-5----5--5--X
A----2--2-2---2-2----3------3----3-------2-----2----2-----3------3-------3---
E---------2-----------------3----3-------------2----------3------3-------3---

e----------------------------------------------------------------------------
G----------------------------------------------------------------------------
B---------------------------------------------------------14------14-------12
D---9--9-----9-9--10--10----10--------9--9----14-----------------------------
A----------------------------------------------------------------------------
E----------------------------------------------------------------------------

e----------------------------------------------------------------------------
G----4--4-4---4-4----5----5-5----5-5-----4---4-4----4-4-----5----------------
B----4--4-4---4-4--0-5----5-5----5-5-----4---4-4----4-4-----5----------------
D----4--4-4---4-4--0-5----5-5----5-5-----4---4-4----4-4-----5----------------
A----2----2-----2----3------3----3-------2-----2------------3----------------
E---------2-----------------3----3-------------2---------X-------------------


VERSE
e----------------------------------------------------------------------------
G----------------2--------------------5------------------2------------------5
B-------2--------2-----------5--------5---------2--------2---------5--------5
D-------2------2-------------5------5-----------2---2--2-----------5------5--
A---2--------0----------5---------3---------2-------0---------5---------3----
E---0------0--------0---3-------0-------0---0-----0-------0---3-------0------

e----------------------------------------------------------------------------
G----------------2--------------------5------------------2--------------5-5-0
B-------2--------2-----------5--------5---------2--------2--------5-----5-5-0
D-------2------2-------------5------5-----------2------2----------5---5-5-5-0
A---2--------0----------5---------3---------2-------0---------5--------------
E-0-0------0--------0---3-------0-------0---0-----0-------0---3------0-------


CHORUS
e----------------------------------------------------------------------------
G----------------------------------------------------------------------------
B----------------------------------------------------------------------------
D----------------------------------------------------------------------------
A----7----7-----10-9-7----------7----------7-------10-9-7--------------------
E----------------------10---------------------------------10-----7-7-7--7-5--

e------------0----0--0------3-----3-----3--3-------------0----0-0---------3--
G------------0----0--0--0---0-----0-----0--0--0----------0----0-0-0-----0-0-0
B------------2----2-----0---0--0--0-----0--0--0----------X------X-0-----0-0-0
D-----------------------0---0--0--0--------0--0---2------2------2-0--0--0-0-0
A----2----------------------X--X--X--------X------2------2------2---------X-X
E----0----------------------3--3--3--------3------0------0------0----3----3-3

e---------------------------------------------------------------------------
G-0-------------------------------------------------------------------------
B-0-------------------------------------------------------------------------
D-0-------------------------------------------------------------------------
A-----7------10-9-7-----------7-----------7---------10-9-7------------------
E-------------------10-----------------10------------------10-----7---7---5-

e---------------0-0-----3-----3----3-3---------------0-0---3-----------------
G----------0----0-0-----0-----0----0-0--0--------0---0-0---0---0-------0-----
B----------X------X--0--0-----0----0-0--0--------X-----X-0-0---0-------0--0-0
D---2------2------2--0--0--0--0------0--0--------2-----2-0-0-----------0--0-0
A---2------2------2-----X--X--X------X-----2-----2-----2---X-----------X--X--
E---0----0-0------0-----3--3--3------3-----0---0-0-----0---3------3-7--7--7--


Outro
e--------------
G---------2----
B---------2----
D------2-------
A----0---------
E--0---------0-IM PRETTY SURE THAT ON THE OUTRO(I THINK IM DUMB I THINK IM DUMB) THAT HE
JUST PLAYS THIS OVER AND OVER

Order(Just in case even though it's already written above the lines)
Verse-1
Chorus-1
Verse-1
Chorus-1
Bridge-1
Verse-1
Chorus-1
Outro-12

THATS IT, IT TOOK ME ABOUT 3HRS STRAIGHT W/OUT STOPPIN TO FIGURE IT OUT CUZ IT HAS
A LOT OF LITTLE PARTS U MISS THE 1ST THOUSAND TIMES LOL :-) ANY QUESTIONS E-MAIL ME
AT NIRVANAPUNK747@YAHOO.COM
FYI IT'S NOT NECESSARY TO PLAY THE MUTES ON SUM OF IT IT JUST MAKES IT SOUND BETTER
-CAMERON
Comments