Nirvana - Dumb Chords & Tabs

 

Dumb Chords & Tabs

Nirvana Chords & Tabs

Version: 1 Type: Bass Tab 1 rating
1 star 2 stars 3 stars 4 stars 5 stars
comments

Dumb Bass Tab

   
Song Title: Dumb(correct version)
Artist: Nirvana
----------------------------------------------

DUMB 

From: Nick Spink (sp_gr_1060@dayton.net)

1/2 step down tuning (Eb,Ab,Db,Gb)

Verse 1
                            (play 4 times)
      E    A             G      C
G:||------------------|------------------||
D:||o-----------------|-----------------o||
A:||o--------4-2-0----|---------3-3-3-5-o||
E:||--0----0-------5--|--5-5-3-----------||

            I'm Not Like Them...

Chorus 1
                        _________________   _________________
                       / 1, 2, 3           / 4
    E      A             G      C            G      C
G:||------------------|------------------||------------------|
D:||o-----------------|-----------------o||------------------|
A:||o--------0-0-0-0--|---------3-3-3-3-o||---------3/7-7-7--|
E:||--0--0-0----------|--3--3-3----------||--3--3-3----------|

      Happy...            


Verse 2
                            (play 4 times)
      E    A             G      C
G:||------------------|------------------||
D:||o-----------------|-----------------o||
A:||o--------4-2-0----|---------3-3-3-5-o||
E:||--0----0-------5--|--5-5-3-----------||

            My Heart is Broke...
[ Tab from: http://www.guitartabs.cc/tabs/n/nirvana/dumb_btab.html ]
Chorus 2
                        _________________   _________________
                       / 1,2,3             / 4
    E      A             G      C            G      C
G:||------------------|------------------||------------------|
D:||o-----------------|-----------------o||------------------|
A:||o--------0-0-0-0--|---------3-3-3-3-o||---------3/7-7-7--|
E:||--0--0-0----------|--3--3-3----------||--3--3-3----------|

      Happy...            


Bridge
                        _________________   _________________
                       / 1,2,3             / 4
      B                  C                   C
G:||------------------|------------------||------------------|
D:||o-----------------|-----------------o||------------------|
A:||o-2--2-2---2-2-2--|--3--3-3---3-3-3-o||--3---------------|
E:||------------------|------------------||------------------|

      Skin The Sun...


Verse 3
                            (play 4 times)
      E    A             G      C
G:||------------------|------------------||
D:||o-----------------|-----------------o||
A:||o--------4-2-0----|---------3-3-3-5-o||
E:||--0----0-------5--|--5-5-3-----------||

            I'm Not Like Them...


Chorus 3
                        _________________   _________________
                       / 1,2,3             / 4
    E      A             G      C            G      C
G:||------------------|------------------||------------------|
D:||o-----------------|-----------------o||------------------|
A:||o--------0-0-0-0--|---------3-3-3-3-o||---------3/7-7-7--|
E:||--0--0-0----------|--3--3-3----------||--3--3-3----------|

      Happy...            


Outro
                            (play 8 times)
      E    A             G      C
G:||------------------|------------------||
D:||o-----------------|-----------------o||
A:||o--------4-2-0----|---------3-3-3-5-o||
E:||--0----0-------5--|--5-5-3-----------||


G:|------------------|
D:|------------------|
A:|------------------|
E:|--0---------------|


Submitted by:  Nick Spink (sp_gr_1060@dayton.net)

Comments