Nirvana - Drain You Chords & Tabs

 

Drain You Chords & Tabs

Nirvana Chords & Tabs

Version: 4 Type: Tab 0 ratings
1 star 2 stars 3 stars 4 stars 5 stars
comments

Drain You Tab

   
Nirvana
Drain You 
Nevermind

Tabbed by:Carlos
Email:drunkenmonkey02@hotmail.com

Tuning:D,A,D,G,B,e
Intro:
e|----------------------------
B|----------------------------
G|------8-8--------- *4-4-----
D|-7-7--8-8--4-4-----*4-4-----
A|-7-7--6-6--4-4-----*2-2-----
D|-7-7-------4-4--------------

  [This is on clean] * Hit Distortion

Verses
e|---------------------|
B|----------------------
G|------8-8-------4-4---
D|-7-7--8-8--4-4--4-4---        X3
A|-7-7--6-6--4-4--2-2---
D|-7-7-------4-4--------
[ Tab from: http://www.guitartabs.cc/tabs/n/nirvana/drain_you_tab_ver_4.html ]
Part 1 of chorus
e|--------------------------------
B|--------------------------------
G|--------------------------------
D|-4-4--2-2--6-6-6-6--2-2-2-------
A|-4-4--2-2--6-6-6-6--2-2-2-------
D|-4-4--2-2--6-6-6-6--2-2-2-------
Rest of chorus
e|------------------
B|------------------
G|------------------
D|-6-6-6-6--2-2-2---        X2
A|-6-6-6-6--2-2-2---
D|-6-6-6-6--2-2-2---
End of Chorus/ End of song
e|--------
B|--------
G|--------
D|-6--2--1
A|-6--2--1
D|-6--2--1

Bridge Palm muted squeaky bit
e|--x0-0x--x0-0x--x0-0x--x0-0x--
B|--x0-0x--x0-0x--x0-0x--x0-0x--
G|--x0-0x--x0-0x--x0-0x--x0-0x--
D|------------------------------
A|------------------------------
E|------------------------------

Bridge The heavey distortion part
e|----0-0-0-0-0-0-0-0--0---
B|----0-0-0-0-0-0-0-0----0-
G|----0-0-0-0-0-0-0-0------
D|-------------------------
A|-------------------------
E|------------------------- 

Verse Build up
e|-----------------------------------|
B|---4-5-2-3-3-4-4-5-5-6-6-7-7-8-8-9-|
G|-----------------------------------|
D|-----------------------------------|
A|-----------------------------------|
E|-----------------------------------|

| /  slide up
| \  slide down
| h  hammer-on
| p  pull-off
| ~  vibrato
| +  harmonic
| x  Mute note
Comments