Nirvana - Drain You Chords & Tabs

 

Drain You Chords & Tabs

Nirvana Chords & Tabs

Version: 1 Type: Bass Tab 1 rating
1 star 2 stars 3 stars 4 stars 5 stars
comments

Drain You Bass Tab

Drain You
by Nirvana
from the album Nevermind



   Verse
|------------------------------
|------------------------------
|---2--2/6-6-6-----4-4-4-4-----
|--------------4-4-------------


[ Tab from: http://www.guitartabs.cc/tabs/n/nirvana/drain_you_btab.html ]
    Chorus
|-------------------------------------------------------
|-------------------------------------------------------
|-----4-4-4-4-4-4-4---------------4-4-4-4---------------
|-2-0---------------0-0-0-0-0-0-0---------0-0-0-0-0-0-0-

|-------------------------------------------------------
|-------------------------------------------------------
|-4-4-4-4-4-4-4---------------4-4-4-4-2-0---------------
|---------------0-0-0-0-0-0-0-------------4-4-4-4-4-4---



Interpretation by Dave Miller ~ dwm3@po.cwru.edu
Comments