Nirvana - Dive Chords & Tabs

 

Dive Chords & Tabs

Nirvana Chords & Tabs

Version: 6 Type: Tab 0 ratings
1 star 2 stars 3 stars 4 stars 5 stars
comments

Dive Tab

   
tabbed by Echo Flanger (andy@emily-plays.net) 

DIVE

Tuning:Standard

MAIN RIFF

F#5    G5 F#5     G5 F#5E5
-------------------I-------------------|I
-------------------I---------/9-9-9----|I
-------------------I---------/9-9-9----|I
-4----4b5r4-----4b5I-r4-2-2--/9-9-9-0--|I
-4----4b5r4-----4b5I-r4-2-2--/7-7-7-0--|I
-2--0-2b3r2--0--2b3I-r2-0-0---------0--|I

VERSE/INTERLUDE
[ Tab from: http://www.guitartabs.cc/tabs/n/nirvana/dive_tab_ver_6.html ]
F#7          E
---------I------0-0-0---|
---------I------0-0-0---|
---------I------1-1-1-0-|
------2--I------2-2-2-0-|
----1----I---2--2-2-2-0-|
2-2------I---0--0-0-0-0-|


CHORUS

B5   C#5    G5   E
----------I------0--0----|I
----------I------0--0----|I
4--4-6--6-I------1--1----|I
4--4-6--6-I-5--5-2--2-0--|I
2--2-4--4-I-5--5-2--2-0--|I
----------I-3--3-0--0-0--|I


SOLO
-----------------I-----------------|I
-----------------I-----------------|I
-----------------I-----------------|I
8--6--8b9-8--8b9-I-r8-6---------6--|I
-----------------I------7--7--7----|I
-----------------I-----------------|I
Comments