Nirvana - Dive Chords & Tabs

 

Dive Chords & Tabs

Nirvana Chords & Tabs

Version: 4 Type: Tab 0 ratings
1 star 2 stars 3 stars 4 stars 5 stars
comments

Dive Tab

Dive 

Written by: Kurt Cobain and Chris Novoselic
Played by: Nirvana
Guitar player: Kurt Cobain
Album: Incesticide

Tab by rjan Olsen at orjano@hotmail.com

I am so tierd of people posting bad tabs, therefor i'm going to 
tab out the incesticide album, and first up is Dive


This is in standard tuning

 Harm______
|----------------------------|
|----------------------------|
|----------------------------|
|----------------------------|
|-2.4---2.9------------------|
|----------------------------|

rythm fig 1
|------------------------------------------|
|--------------------------------/9-9-9----|
|--------------------------------/9-9-9--0-|
|--------------------------------/9-9-9--0-|
|-4--0--4hb--4--0--4hb(4)--2--2--/7-7-7----|
|-2--0--2hb--2--0--2hb(2)--0--0------------|


|------------------------------------------|
|--------------------------------/9-9-9----|
|--------------------------------/9-9-9--0-|
|--------------------------------/9-9-9--0-|
|-4--0--4hb--4--0--4hb(4)--2--2--/7-7-7----|
|-2--0--2hb--2--0--2hb(2)--0--0------------|

 Us
|------------------------------------------|
|-----------------------------------9-9----|
|--------------------------------/9-9-9--0-|
|--------------------------------/9-9-9--0-|
|-4--0--4hb--4--0--4hb(4)--2--2--/7-7-7----|
|-2--0--2hb--2--0--2hb(2)--0--0------------|

                              End rythm fig 1
|-------------------------------------------|
|-------------------------------------------|
|--------------------------------(2)--------|
|--------------------------------(2)/7------|
|-4--0--4hb--4--0--4hb(4)--2--2-------------|
|-2--0--2hb--2--0--2hb(2)--0--0---------5\0-|

Verse: 

Rhy. fig 2   Pick me    pick me,____ yeah
|----------------------0-0----0-0-0---------|
|----------------------0-0----0-0-0---------|
|----------------------1-1----1-1-1---------|
|-----------2------(2)-2-2----2-2-2---------|
|--------0-------------2-2----2-2-2---------|
|--2--2----------------0-0----0-0-0-4hb-----|
Play rhy. fig 2- 4 times more
[ Tab from: http://www.guitartabs.cc/tabs/n/nirvana/dive_tab_ver_4.html ]
Chorus:
Rhy. rig 3                                                       end rhy fig 3          
|-----------------------------0------|------------------------------------------|
|-----------------------------0------|------------------------------------------|
|-4---4/6---4--6--7---6--7--9---9----|--------------------------------/9-9-9--0-|
|-4---4/6---4--6--7---6--7--9---9----|--------------------------------/9-9-9--0-|
|-2-0-2/4---2--4--5---4--5--7---7--6-|-4--0--4hb--4--0--4hb(4)--2--2--/7-7-7----|
|----------------------------------4-|-2--0--2hb--2--0--2hb(2)--0--0------------|

play rhy fig 3- 3 and a half more times

Interlude:

|------------------------|----------0--0--0--0-|-----------------------|
|------------------------|----------0--0--0--0-|-----------------------|
|------------------------|----------1--1--1--1-|-----------------------|
|----------2-------x--2--|------2---2--2--2--2-|----------2-------x--2-|
|-------0----------------|------2--------------|-------0---------------|
|--2--2------------------|---0--0--------------|-2--2------------------|


|--------------0--0--0--0--|--------------------------|------------0--0--0--0-|
|--------------0--0--0--0--|--------------------------|------------0--0--0--0-|
|--------------1--1--1--1--|--------------------------|------------1--1--1--1-|
|--(2)----2----2--2--2--2--|----------2--------x--2---|-------2----2--2--2--2-|
|---------2----------------|-------0------------------|-------2---------------|
|------0--0----------------|-2--2---------------------|----0--0---------------|
                           ******************************************************
|------------------0-------|-------0--0--0--0--|--------------------------------|
|--------------------------|-------0--0--0--0--|--------------------------------|
|------------------x--2----|-------1--1--1--1--|-3----1----3--3~~~~--1---3hb(3)-|
|-----------2--------------|---2---2--2--2--2--|--------------------------------|
|--------0-----------------|---2---------------|--------------------------------|
|--2--2--------------------|---0---------------|--------------------------------|

Play ** 3 and a half more times


Thats all the major parts, if you have any questions please mail me at orjano59@hotmail.com
Let kurt live on
Comments