Nirvana - Dive Chords & Tabs

 

Dive Chords & Tabs

Nirvana Chords & Tabs

Version: 2 Type: Tab 0 ratings
1 star 2 stars 3 stars 4 stars 5 stars
comments

Dive Tab

"Dive" by Nirvana

the only tabs here for this song where terrible so I made my own.
 this is as close to 100% correct as anyone will eve tab this song.
 i think is a fairly easy tab to follow but if you do have 
any question e-mail me. zero_2006@hotmail.com 
(put "tab" as the subject)   


e--main-rif------------|--2-2-2-2--|   |-----------|
b----------------------|--3-3-3-3--|   |-----------|   use which ever
g----------------------|--2-2-2-2--|or |--7-7-7-7--|  one you want it
d--4-4-4-4---4-4---4-4-|-----------|you|--7-7-7-7--|  doesn’t matter
a--4-4-4-4---4-4---4-4-|-----------|can|--5-5-5-5--| but Kurt used the
E--2-2-0-2b--0-2b--0-2-|-----------|go |-----------|   first one
[ Tab from: http://www.guitartabs.cc/tabs/n/nirvana/dive_tab_ver_2.html ]
e---do-this-for-the-last-time----------
b--------------------------------------
g-------------------------------------- that last thing means
d--4-4-4-4---4-4---4-4----------------- hit the string lightly
a--4-4-4-4---4-4---4-4-----------------
E--2-2-0-2b--0-2b--0-2-2//10-(10)(10)--

  --"pick me, pick me, yeah"--
e----------------------2-2-2-2--  you don’t really play opens
b-------------0~~~~~~~~3-3-3-3--  you just make noise, hit the
g--0~~~0~~~0~~0~~~~~~~~2-2-2-2--  string lightly. that’s the
d--0~~~0~~~0~~0~~~~~~~~~~~------  best I can tab it.
a--x-x-0-x-x--0~~~~~~~~~~~------
E--2-2-0-2-2b~~~~~~~~~~---------

e-----"dive..dive"---------
b--------------------------
g--4--4-6--6-2--2-5-5-5-5--
d--4--4-6--6-2--2-5-5-5-5--
a--2--2-4--4-0--0-3-3-3-3--
E--------------------------

e-------solo part 1------
b------------------------  play a few times
g------------------------  and again try to
d------------------------  make some noise
a--2-2-0--2b--0-2b--0----
E---------------------1--

e----solo part 2-------
b----------------------
g----------------------  play a few times
d--8-8-6-8b-8-8-8-6----
a-------------------7--
E----------------------

have a blast and the blast yourself.
Comments