Nirvana - Dive Chords & Tabs

 

Dive Chords & Tabs

Nirvana Chords & Tabs

Version: 1 Type: Tab 1 rating
1 star 2 stars 3 stars 4 stars 5 stars
comments

Dive Tab

Song:Dive
Artist:Nirvana
Tabbed by:John

-------------------------------------------------
-------------------------------------------------
-------------------/9-9-9------------------------
-------------------/9-9-9------------------------
-4-0-4-4-0-4b-2-2--/7-7-7------------------------
-2-0-2-2-0-2b-0-0--------------------------------

then the verse
-------------------------------------------------
-------------------------------------------------
--------------1---1--1--1--1---------------------
----------2---2---2--2--2--2---------------------
-------0------2---2--2--2--2---------------------
-2--2---------0---0--0--0--0---------------------
[ Tab from: http://www.guitartabs.cc/tabs/n/nirvana/dive_tab.html ]
then the 'dive, dive, dive' part
-----------------------------------------------------
-----------------------------------------------------
-4---/6---/7-7---/9--9--------------------/-9-9-9----
-4---/6---/7-7---/9--9--------------------/-9-9-9----
-2-0-/4-0-/5-5-0-/7--7---4-0-4-4-0-4b-2-2-/-7-7-7----
-------------------------2-0-2-2-0-2b-0-0------------

interlude
------------------------------------------------------------------
------------------------------------------------------------------
----------------1-1-1----3---1----3---3---1----3b--1--------------
---------2----2-2-2-2--------------------------------2-2-2-2------
------0----0----2-2-2--------------------------------2-2-2-2------
-2-2------------0-0-0--------------------------------0-0-0-0------
Comments