Nirvana - D-7 Chords & Tabs

 

D-7 Chords & Tabs

Nirvana Chords & Tabs

Version: 3 Type: Tab 0 ratings
1 star 2 stars 3 stars 4 stars 5 stars
comments

D-7 Tab

   
Song: D-7
Artist: Kurt Cobain
Album: With The Lights Out (disc 2)
Band: Nirvana

       slow part
e----------------------------------------------------------|
B----------------------------------------------------------|
G----------------------------------------------------------|
D-----2-------0-------2-------0-------2-------0-------2----|
A---2---2---3---3---2---2---3---3---2---2---3---3---2---2--|
E-0-------1-------0-------1-------0-------1-------0--------|

e---------------------------------------------------------------------------|
B---------------------------------------------------------------------------|
G---------2--2-x-x-----0-------2-------3------------------------------------|
D-----3---2--2-x-x---3---3---2---2---3---3-2---2-------0-------2-------0----|
A---3---3 0--0-x-x 1-------0-------1-------2-2---2---3---3---2---2---3---3--|
E-1----------------------------------------0-------1-------0-------1--------|


       fast part
e---------------------|
B---------------------|
G---------------------|
D-2-2-2-2-3-3-5-5-3-3-|
A-2-2-2-2-3-3-5-5-3-3-| x 4
E-0-0-0-0-1-1-3-3-1-1-|
[ Tab from: http://www.guitartabs.cc/tabs/n/nirvana/d_7_tab_ver_3.html ]
e---------------------|
B---------------------|
G-2-2-2-2-3-3-5-5-3-3-|
D-2-2-2-2-3-3-5-5-3-3-|
A-0-0-0-0-1-1-3-3-1-1-| x 2
E---------------------|

e---------------------|
B---------------------|
G---------------------|
D-2-2-2-2-3-3-5-5-3-3-|
A-2-2-2-2-3-3-5-5-3-3-| x 4
E-0-0-0-0-1-1-3-3-1-1-|


     solo
e------------------------------------------------------------|                
B-4^~~~~4^~~~~4--3--------------4^~~~~~~~~~4^-3--------------|
G------------------0-3^~~~~~~~~-----------------0-3^~~~~~~~--|
D------------------------------------------------------------|
A------------------------------------------------------------|
E------------------------------------------------------------|

e-----------------7-----------------------------7--7--7--7--7--7--7--777777-77-|
B-7/8-8-8-8-8-8-8-6 8-8-8-8-8-8-7/8-8-8-8-8-8-8 6--6--6--6--6--6--6--666666-66-|
G-6/7-7-7-7-7-7-7---7-7-7-7-7-7-6/7-7-7-7-7-7-7--------------------------------|
D------------------------------------------------------------------------------|
A------------------------------------------------------------------------------|
E------------------------------------------------------------------------------|

e-7-7-7-7-10--|
B-6-6-6-6--9--|
G----------+--|
D-------------|
A-------------|
E-------------|
  
Comments