Nirvana - Come As You Are Chords & Tabs

 

Come As You Are Chords & Tabs

Nirvana Chords & Tabs

Version: 1 Type: Tab 4 ratings
1 star 2 stars 3 stars 4 stars 5 stars
comments

Come As You Are Tab

Guitar Tab by: Dean Chittick.

Song: Come As You Are
Album: Nevermind
Artist: Nirvana
Tuning: down ½ note (each string)

Key:
^: Bend Up
R: Release

Intro/Verse 1:
--------------------------------------------------------------------------------  
-------------------------------------------------------------------------------- 
--------------------------------------------------------------------------------  
-------------------------------------------------------------------------------- 
---------0---0---------2-----2--------------------------------------------------  
-0-0-1-2---2---2-2-1-0---0-0---------------------------------------------------- 
[ Tab from: http://www.guitartabs.cc/tabs/n/nirvana/come_as_you_are_tab.html ]
Chorus:
---2-2-2-2-2---5-5-5-5-5--------------------------------------------------------  
---2-2-2-2-2---5-5-5-5-5-------------------------------------------------------- 
---3-3-3-3-3---6-6-6-6-6--------------------------------------------------------  
---4-4-4-4-4---7-7-7-7-7-------------------------------------------------------- 
---4-4-4-4-4---7-7-7-7-7--------------------------------------------------------  
---2-2-2-2-2---5-5-5-5-5--------------------------------------------------------
 
Bridge:
--------------------------------------------------------------------------------  
-------------------------------------------------------------------------------- 
---4-4-4-4-4---7-7-7-7-7--------------------------------------------------------  
---4-4-4-4-4---7-7-7-7-7-------------------------------------------------------- 
---2-2-2-2-2---5-5-5-5-5--------------------------------------------------------  
--------------------------------------------------------------------------------
(I swear that I don’t have a gun…) 

Solo:
--------------------------------------------------------------------------------  
------4--6-6-----4--6-6----4--6--6^-6^-6^-6^-6R-4-4----------------------------- 
---5----------5-----------5-----------------------------------------------------  
-------------------------------------------------------------------------------- 
--------------------------------------------------------------------------------  
-------------------------------------------------------------------------------- 

--------------------------------------------------------------------------------  
------4--6-6-----4--6-6----4--6--6^-6^-6^-6^-6R-4-4----------------------------- 
---5----------5-----------5-----------------------------------------------------  
-------------------------------------------------------------------------------- 
--------------------------------------------------------------------------------  
--------------------------------------------------------------------------------

That’s the whole song, listen to the CD to figure out how it all fits in.
(Emails to: silverchair_01@hotmail.com)
Comments