Nirvana - Come As You Are (correct) Chords & Tabs

 

Come As You Are (correct) Chords & Tabs

Nirvana Chords & Tabs

Version: 1 Type: Tab 11 ratings
1 star 2 stars 3 stars 4 stars 5 stars
comments

Come As You Are (correct) Tab

   
Actually this is the only correct on in your archive. you should consider adding this because it's the only
one with the correct tuning and chord shapes. let me know.


Come as you are
Nirvana


Finally the 100% correct version of this classic.
all the other tabs smell like teen spirit...

Tune a whole step down

Intro
d|--|-------------------------------------------------------------| 
A|--|-------------------------------------------------------------|
F|--|-------------------------------------------------------------|  
E|--|-------------------------------------------------------------|
G|--|-------0---0---------2-----2---------------------------------| 
D|-0|0-1-2---2---2-2-1-0---0-0------------------------------------|

(play the first zero only the first time...)

[Verse] (with intro)
Come as you are
As you were
As I want you to be

As a friend, 
as a friend
As an old enemy

Take your time 
Hurry up
The choice is yours 
Don't be late 
   

Take a rest
As a friend  
As an old...
Memoria (x4)

[ Tab from: http://www.guitartabs.cc/tabs/n/nirvana/come_as_you_are_correct_tab.html ]
"Memoria" is sung over this (the 2s just sound good)
         E             G 
d|-----------(-2-)------------------------------------------------------------|
A|-----------(-2-)------------------------------------------------------------|
F|----------------------------------------------------------------------------|
E|-----4-4-4---------7-7-7----------------------------------------------------|
G|-----4-4-4---------7-7-7----------------------------------------------------|
D|-----2-2-2---------5-5-5----------------------------------------------------|




Come, doused in mud 
Soaked in bleach
As i want you to be 

As a trend, 
as a friend 
as an old...
Memoria (x4)



[Bridge] 
(chords related to tuning, aka a whole step down)

Am        C            Am           C            
   And i swear that i don't have a gun
No i don't have a gun, No i don't have a gun





[Solo]   Play with this
d|---------------------------------------------------------------------------|
A|-------5-7---5-7---5-7-7b-9r7-5--------------------------------------------|
F|-----6----6~----6~--------------6~-----------------------------------------|
E|---------------------------------------------------------------------------|
G|---------------------------------------------------------------------------|
D|---------------------------------------------------------------------------|

Compiled with TabPlayer :: http://www.simoneperandini.com/tabplayer.htm

Comments