Nirvana - Come As You Are Acoustic Chords & Tabs

 

Come As You Are Acoustic Chords & Tabs

Nirvana Chords & Tabs

Version: 1 Type: Tab 0 ratings
1 star 2 stars 3 stars 4 stars 5 stars
comments

Come As You Are Acoustic Tab

Nirvana 
Come as you are
MTV Unplugged in New York
Tabbed by Rob

xero762002@yahoo.co.uk
http://www.geodogs.co.uk

Intro/Verse

----------------------------------
----------------------------------
----------------------------------
----------------------------------
----------0---0---------2-----2---
--0-0-1-2---2---2-2-1-0---0-0---0-

'Come, as you are, as you were . . .'

Chorus

------------------------------
-----------2-2-2-2-2-2-2-2----
-----------2-2-2-2-2-2-2-2----
--4-4-4-4--2-2-2-2-2-2-2-2----
--4-4-4-4---------------------
--2-2-2-2---------------------

'Memoria, Memoria . . . .'

Bridge
[ Tab from: http://www.guitartabs.cc/tabs/n/nirvana/come_as_you_are_acoustic_tab.html ]
---------------2-2-2-2-2-2--
---------------3-3-3-3-3-3--
--4-4-4-4-4-4--2-2-2-2-2-2--
--4-4-4-4-4-4---------------
--2-2-2-2-2-2---------------
----------------------------

'And I swear that I dont have a gun . . .'

Solo

---------------------------------------------------------
---------------------------------------------------------
--6--9-11-11--6--9-11-11--6--9-11-11-13-13-13-11-9-9--6--
---------------------------------------------------------
---------------------------------------------------------
---------------------------------------------------------

Any corrections?
Email me @ xero762002@yahoo.co.uk
Comments