Nirvana - Breed Chords & Tabs

 

Breed Chords & Tabs

Nirvana Chords & Tabs

Version: 7 Type: Tab 0 ratings
1 star 2 stars 3 stars 4 stars 5 stars
comments

Breed Tab

   
-------------------------------------------------------------------------------

"Breed"
Nirvana
Nevermind

-------------------------------------------------------------------------------

Intro/Verse:

e|-------------|
B|-------------|
G|----------7--|
D|--2-2-2-5-7--|
A|--2-2-2-5-5--|
E|--------3----| x11 times

Pre-Chorus:

e|--------------|
B|--------------|
G|-7-----6-5-5--|
D|-7-7-7-6-5-5--|
A|-5-7-7-4-3-3--|
E|---5-5--------| x4 times

Chorus:

e|-------------|
B|-------------|
G|----------7--|
D|--2-2-2-5-7--|
A|--2-2-2-5-5--|
E|--------3----| x7 times

Verse:

e|-------------|
B|-------------|
G|----------7--|
D|--2-2-2-5-7--|
A|--2-2-2-5-5--|
E|--------3----| x11 times

Pre-Chorus:

e|--------------|
B|--------------|
G|-7-----6-5-5--|
D|-7-7-7-6-5-5--|
A|-5-7-7-4-3-3--|
E|---5-5--------| x4 times

Chorus:
[ Tab from: http://www.guitartabs.cc/tabs/n/nirvana/breed_tab_ver_7.html ]
e|-------------|
B|-------------|
G|----------7--|
D|--2-2-2-5-7--|
A|--2-2-2-5-5--|
E|--------3----| x7 times

Solo:

/ = slide up

e|------------------------------------------------------------------|
B|------------------------------------------------------------------|
G|--11------11-10-9-7--14-------14-13-12-10---17-------17-16-15-13--|
D|------------------------------------------------------------------|
A|--9-------9--8--7-5--12-------12-11-10--8---15-------15-14-13-11--|
E|------------------------------------------------------------------| 

e|-----------------------|
B|-----------------------|
G|---19-------20----20/--|
D|-----------------------|
A|---17-------18----18/--|
E|-----------------------|

Pre-Chorus:

e|--------------|
B|--------------|
G|-7-----6-5-5--|
D|-7-7-7-6-5-5--|
A|-5-7-7-4-3-3--|
E|---5-5--------| x4 times

Chorus:

e|-------------|
B|-------------|
G|----------7--|
D|--2-2-2-5-7--|
A|--2-2-2-5-5--|
E|--------3----| x7 times

Enjoy :-D
Comments