Nirvana - Breed Chords & Tabs

 

Breed Chords & Tabs

Nirvana Chords & Tabs

Version: 6 Type: Tab 0 ratings
1 star 2 stars 3 stars 4 stars 5 stars
comments

Breed Tab

nirvana
breed


intro:  dostorted

E|---------------------------------------
B|---------------------------------------
G|---------------------------------------
D|---------------------------------------
A|--4-4--2--4--7^--2--4-4--2--4--2--7^---
E|--2-2--0--2--5^--0--2-2--0--2--0--5^---


verse:

E|----------------|
B|----------------|
G|--66666-6666^---| ocasionaly play a (66666^-5^-3^) then back to the normal 
D|----------------| verse
A|----------------|
E|----------------|


  chorus:

E|------------------------------|
B|------------------------------|
G|------------------------------|
D|--777777--7777--55555--4444---|
A|--555555--7777--33333--2222---|
E|----------5555----------------|

  or
[ Tab from: http://www.guitartabs.cc/tabs/n/nirvana/breed_tab_ver_6.html ]
E|-----------------------------|   not real sure witch one it is.
B|-----------------------------|
G|-----------------------------|
D|--77777--77777--5555-3333----|
A|--55555--77777--3333-1111----|
E|---------55555---------------|

  i think the solo goes like

E|-------------------------------------------|
B|-------------------------------------------|
G|--13-13-13---------------------------------|
D|--11-11-11--12--------7777--10-10-10-10----|
A|---------------44444--5555--8--8--8---8----|
E|---------------22222-----------------------|


outro:  repeat like a million times

E|--------------------------------------------|
B|--------------------------------------------|
G|--------------------------------------------|
D|--------------------------------------------|
A|--4-4-2--4--7^--2--4-4--2--4--7^--2---------|
E|--2-2-0--2--5^--0--2-2--0--2--5^--0---------|
    ^ let ring on the last note
Comments