Nirvana - Breed Chords & Tabs

 

Breed Chords & Tabs

Nirvana Chords & Tabs

Version: 4 Type: Tab 0 ratings
1 star 2 stars 3 stars 4 stars 5 stars
comments

Breed Tab

   
#----------------------------------PLEASE NOTE---------------------------------#
#This file is the author's own work and represents their interpretation of the #
#song. You may only use this file for private study, scholarship, or research. #
#------------------------------------------------------------------------------##
From: ujclarke@uxa.ecn.bgu.edu (John Clarke)
Subject: TAB: Breed
Date: 22 May 1994 08:29:29 GMT
X-Newsreader: TIN [version 1.2 PL2]


BREED by Kurt Cobain


Intro:

e|---------------------------------|---------------------------------|
B|---------------------------------|---------------------------------|
G|-*-----------------------------*-|-*-------------------------------|
B|-*--4--4--4--4--7-----------2--*-|-*--4--4--4--4--7----------------|
A|----4--4--4--4--7-Bend------2----|----4--4--4--4--7-Bend-----------|
E|----2--2--0--2--5-----------0----|----2--2--0--2--5-----------0----|

e|---------------------------------|---------------------------------|
B|---------------------------------|---------------------------------|
G|---------------------------------|-------------------------------*-|
B|----4--4--4--4--7----------------|----4--4--4--4--7--------------*-|
A|----4--4--4--4--7-Bend-----------|----4--4--4--4--7-Bend-----------|
E|----2--2--0--2--5-----------0----|----2--2--0--2--5-----------0----|
                  

Riff 1:

e|---------------------------------|---------------------------------|
B|---------------------------------|---------------------------------|
G|-*-------------------------------|---------------------------------|
B|-*--4--4-------------------------|----4--4-------------------------|
A|----4--4-------------------------|----4--4-------------------------|
E|----2--2--0--2--5-Bend------0----|----2--2--0--2--5-Bend------0----|

e|---------------------------------|---------------------------------|
B|---------------------------------|---------------------------------|
G|---------------------------------|-------------------------------*-|
B|----4--4-------------------------|----4--4-----------------------*-|
A|----4--4-------------------------|----4--4-------------------------|
E|----2--2--0--2--5-Bend------0----|----2--2--0--2--5-Bend------0----|


Verse:

e|-----------------------------|-----|-----|-------------------------|
B|-----------------------------|-----|-----|-------------------------|
G|-----------------------------|-----|-----|-------------------------|
B|---11-11-11-11--11-11-11-11--|--%--|--%--|--11-11-11---------------|
A|---9--9--9--9---9--9--9--9---|-----|-----|--9--9--9--9-Bend--9-7---|
E|-----------------------------|-----|-----|-------------------------|


e|-----------------------------|---|---|---|-------------------------|
B|-----------------------------|---|---|---|-------------------------|
G|-*---------------------------|---|---|---|-----------------------*-|
B|-*-11-11-11-11--11-11-11-11--|-%-|-%-|-%-|--11-11-11-------------*-|
A|---9--9--9--9---9--9--9--9---|---|---|---|--9--9--9--9-Bend--9-7---|
E|-----------------------------|---|---|---|-------------------------|


e|-----------------------------|
B|-----------------------------|
G|-----------------------------|
B|----4-4-4-4---4-4-4-0--------|
A|----4-4-4-4---4-4-4-1--------|
E|----2-2-2-2---2-2-2----------|




Chorus:
  
      D           A                    C5          B5
e|----2--2--2----------------------|---------------------------------|
B|----3--3--3--X--2------2--X------|---------------------------------|
G|----2--2--2--X--2------2--X------|---5--5--5--X--4------4--X-------|
B|----0--0--0--X--2------2--X------|---5--5--5--X--4------4--X-------|
A|---------------------------------|---3--3--3--X--2------2--X-------|
E|---------------------------------|---------------------------------|

Even if you have ect ...

She said (with Riff 1)





--ujclarke@uxa.ecn.bgu.edu
[ Tab from: http://www.guitartabs.cc/tabs/n/nirvana/breed_tab_ver_4.html ]
                                By Kurt Cobain
        
        Oh my God! Hereos another song from Nirvana,
  the greatest group of all this world (even if Kurtos
  body is not here, his soul will be with us every single 
  day).Letos start with this wonderfull song titled "Breed"
  
  rhy.fig 1
  ------------------------------------------------   
  ------------------------------------------------
  ------------------------------------------------
  --4--4--4--4---/7----2--------------------------
  --4--4--4--4---/7----2--------------------------
  --2--2--0--2---/5----0--------------------------
  
  rhy.fig 2
  ------------------------------------------------
  ------------------------------------------------
  ------------------------------------------------
  -11--11--11--11----11--11--11--11---------------
  -11--11--11--11----11--11--11--11---------------
  --9---9---9---9-----9---9---9---9---------------

  ------------------------------------------------
  ------------------------------------------------
  ------------------------------------------------
  -11--11--11--11----11--11--11--11---------------
  -11--11--11--11----11--11--11--11---------------
  --9---9---9---9-----9---9---9---9---------------

                                  end of rhy.fig 2
  ------------------------------------------------
  ------------------------------------------------
  ------------------------------------------------
  -11--11--11--11----11--11--11--11---------------
  -11--11--11--11----11--11--11--11---------------
  --9---9---9---9-----9---9---9---9---------------

  fill  A
  ------------------------------------------------
  ------------------------------------------------
  ----------------full----------------------------
  -11--11--11----/--------------------------------
  -11--11--11---9---------------------------------
  --9---9---9-------------------------------------

  fill  B
  ------------------------------------------------
  ------------------------------------------------
  ------------------------------------------------
  -4---4---4---4---4---4---4----------------------
  -4---4---4---4---4---4---4----------------------
  -2---2---2---2---2---2---2----------------------

  w/rhy.fig 2
 

  rhy.fig 3
  ------------------------------------------------
  --3--3--3---------------------------------------
  --2--2--2---0--2---x--x---5--5--5---0---4--x--x-
  --0--0--0---0--2---x--x---5--5--5---0---4--x--x-
  ---------------0---x--x---3--3--3---0---2--x--x-
  ------------------------------------------------

  w/rhy.fig 3
  

  w/rhy.fig 2
  she said (etc.)

  Guitar Solo
  
  Trem -------------------------------------------
  
  -/---/---/---/-----/---/---/---/----------------
  -/---/---/---/-----/---/---/---/----------------
  -11--11--11--11----11--11--11--11---------------
  ------------------------------------------------
  --9---9---9---9-----9---9---9---9---------------
  ------------------------------------------------

  --------------------------]
  
  ------------------------------------------------
  (12)-(12)-(12)-(12)---(12)----------------------
  -11---11---11---11-----11----10---8-------------   
  ------------------------------------------------
  --9----9----9----9------9-----------------------
  ------------------------------------------------

  Trem--------------------------------------------

  -/----/----/----/-----/----/----/----/----------
  -/----/----/----/-----/----/----/----/----------
  -14---14---14---14----14---14---14---14---------
  ------------------------------------------------
  -12---12---12---12----12---12---12---12---------
  ------------------------------------------------
 
  ----]

  --/---------------------------------------------
  --/---------------------------------------------
  --14------13---12---(12)\-----------------------
  ------------------------------------------------
  --12------11---10---(10)\-----------------------
  ------------------------------------------------

  Trem--------------------------------------------

  -/--------------------/-------------------------
  -/---(18)-------------/---(18)------------------
  -17---17--17--17--17--17---17--17--17--17-------
  ------------------------------------------------
  -15---15--15--15--15--15---15--15--15--15-------
  ------------------------------------------------
  
  Trem--------------------------------------------

  ---------------------------------/--------------
  --------(18)----(18)-------------/--------------
  -17--17--17--17--17--17--17--17--17-------------
  ------------------------------------------------
  -15--15--15--15--15--15--15--15--15-------------
  ------------------------------------------------
  
  Trem--------------------------------------------

  -------------------/---------------------/------
  -(18)--------------/---(18)--------------/------
  --17--17--17--17---17---17--17--17--17---17-----
  ------------------------------------------------
  --15--15--15--15---15---15--15--15--15---15-----
  ------------------------------------------------

  Trem---------------]

  ------------------------------------------------
  -(18)-------------------------------------------
  --17---17--17--17-----18--16--15--14\-----------
  ------------------------------------------------
  --15---15--15--15-----16--14--13--12\-----------
  ------------------------------------------------

  Trem--------------------------------------------

  --/----/----/----/----/----/----/----/----------
  --/----/----/----/----/----/----/----/----------
  -/19---19---19---19---19---19---19---19---------
  ----------
Comments