Nirvana - Blossom Chords & Tabs

 

Blossom Chords & Tabs

Nirvana Chords & Tabs

Version: 1 Type: Tab 0 ratings
1 star 2 stars 3 stars 4 stars 5 stars
comments

Blossom Tab

#----------------------------------PLEASE NOTE---------------------------------#
#This file is the author's own work and represents their interpretation of the #
#song. You may only use this file for private study, scholarship, or research. #
#------------------------------------------------------------------------------#
#
From: OJINLAPD@aol.com
Date: Mon, 8 Jan 1996 02:04:01 -0500
Subject: Blossom tab

BLOSSOM BY CANDLE BOX OFF OF THEIR DEBUT ALBUM AND IT KICKS *** FROM    OJ IN
LAPD     
YOU SHOULD USE A REVERB PEDAL THROUGHOUT THE WHOLE SONG AND YOUR GONNA HAVE
TO BE PRETTY GOOD WITH THE WAH WAH PEDAL FOR THE SOLO BUT OTHERWISE IS JUST
ANOTHER ONE OF PETER KLET'S AWSOME GUITAR CHORDS PUT TO GETHER. THIS IS A
STRAIT THREW TAB MEANING NO CHORDS ALL TAB STRAIGHT THREW JUST FOLLOW WHAT I
SAY
TECHNICAL STUFF
/=SLIDE IN
\=SLIDE OUT
p=PULL OFF
h=HAMMER ON
~=VIBRATE
b1=BEND UP ONE STEP
X=PICK SCRAPE
( )=BARELY HERD NOT PICKED

(INTRO)
PLAY THIS ONCE
--------------0-------------
-------------3--3-----------
------0-----0---------------
--4----4---4----------------
----5---5-------------------
-0-------0------------------
THEN PLAY THIS 5 TIMES
--------------0-------------
-------------3--3-----------
------0-----0---------------
--4----4---4----------------
----5---5-------------------
-0-------5------------------
RYTHM

-----------------0--------------------------------0-----
-3-------------3---3-------------3--------------3---3--
-------------0---------------------------------0--------
-----------4---------------------4-----------4----------
-5---------------------------------5-------------------
-------------------------------------------------------

            
---------------------------------------------0----
--------------------------------------------3--3--
------0--------0-----0-----------0--------0-------
----0--0-----------2---2----4-----4-----4---------
---------5---8----3-------5---5-----5-------------
-5---------8--------------------------0-----------


-----------------0--------------------------------0-----
-3-------------3---3-------------3--------------3---3--
-------------0---------------------------------0--------
-----------4---------------------4-----------4----------
-5---------------------------------5-------------------
-------------------------------------------------------


---------------------------------------------0----
--------------------------------------------3--3--
------0--------0-----0-----------0--------0-------
----0--0-----------2---2----4-----4-----4---------
---------5---8----3-------5---5-----5-------------
-5---------8--------------------------0-----------

---------------------------
---------------------------
----0---------0--------0--
---0--0--------------2----
--5-----5-/-8---8--3------
-5--------8---------------
       
--------------0-------------
-------------3--3-----------
------0-----0---------------
--4----4---4----------------
----5---5-------------------
-0-------0------------------

--------------0-------------
-------------3--3-----------
------0-----0---------------
--4----4---4----------------
----5---5-------------------
-0-------0------------------


-----------------0--------------------------------0-----
-3-------------3---3-------------3--------------3---3--
-------------0---------------------------------0--------
-----------4---------------------4-----------4----------
-5---------------------------------5-------------------
-------------------------------------------------------

---------------------------
---------------------------
----0---------0--------0--
---4--0--------------2---2
--5-----5---8---8--3------
-5--------8---------------

--------------0-------------
-------------3--3-----------
------0-----0---------------
--4----4---4----------------
----5---5-------------------
-0-------0------------------

-----------------0--------------------------------0-----
-3-------------3---3-------------3--------------3---3--
-------------0---------------------------------0--------
-----------4---------------------4-----------4----------
-5---------------------------------5-------------------
-------------------------------------------------------
                                      

---------------------------------------------0----
--------------------------------------------3--3--
------0--------0-----0-----------0--------0-------
----0--0-----------2---2----4-----4-----4---------
---------5---8----3-------5---5-----5-------------
-5---------8--------------------------0----------

---------------------------
---------------------------
----0---------0--------0--
---0--0--------------2---2
--5-----5---8---8--3------
-5--------8---------------
 
---------------------------
---------------------------
----0---------0--------0--
---0--0--------------2---2
--------5---8---8--3------
-5--------8---------------
   
---------------------------
---------------------------
----0---------0--------0--
---0--0--------------2---2
--------5---8---8--3------
-5--------8---------------

-------------------------------------
-3-3-3-3-3---3-3-3-3-3-3-3-3---3---
-2-2-2-2-2---2-2-2-2-2-2-2-2-2-2-2-
-0-0-0-0-0---0-0-0-0-0-0-0-0-0-0-0-
-0-0-0---0---0--- 0---0---0---0---0-
-0-0-0---0---0--- 0---0---0---0---0-
[ Tab from: http://www.guitartabs.cc/tabs/n/nirvana/blossom_tab.html ]
--------------------------------------------------------
----------------------------------------3--3-3-3-------
-0--0--0-----------------------------2- 2 -2-2-2--- 0-0-
-5--5--5--8-8-8-8-8-10-10-10-10-10-4- 4- 4-4-4-4-0-0-
-5--5--5--8-8-8-8-8-10-10-10-10-10-0- 0--------0-0-0-
-5--5--5--8-8-8-8-8-10-10-10-10-10-0- 0--------0-----
       
             AS YOU BLOSSOM ...      
--------------------------------------------------------
----------------------------------------3--3-3-3-------
-0--0--0-----------------------------2- 2 -2-2-2--- 0-0-
-5--5--5--8-8-8-8-8-10-10-10-10-10-4- 4- 4-4-4-4-0-0-
-5--5--5--8-8-8-8-8-10-10-10-10-10-0- 0--------0-0-0-
-5--5--5--8-8-8-8-8-10-10-10-10-10-0- 0--------0----


--------------------------------------------------------
----------------------------------------3--3-3-3-------
-0--0--0-----------------------------2- 2 -2-2-2--- 0-0-
-5--5--5--8-8-8-8-8-10-10-10-10-10-4- 4- 4-4-4-4-0-0-
-5--5--5--8-8-8-8-8-10-10-10-10-10-0- 0--------0-0-0-
-5--5--5--8-8-8-8-8-10-10-10-10-10-0- 0--------0-----
                  AS YOU BLOSSOM ...   
--------------------------------------------------------
-------------------------------3-----(3)-----(3)--------
-0--0--0---------------------- 2-----(2)-----(2)--------
-5--5--5--5-5-5-5-8-10-10-10-0-----(0)-----(0)--------
-5--5--5--5-5-5-5-8-10-10-10-0-----(0)-----(0)--------
-5--5--5--5-5-5-5-8-10-10-10-0-----(0)-----(0)---------

                                   
--------------0-------------       -X---------
-------------3--3-----------       --X--------
------0-----0---------------       ---X-------
--4----4---4----------------       ----X------
----5---5-------------------        -----X-----
-0-------0------------------        ------X----

-----------------------------------------------
-----------------------------------------------
-5/7-7-7-7------------------ 7-7-7--5/7-7-7-7-
-5/7-7-7-7- 5-5-5-5-2-2-2-0-7-5-5--5/7-7-7-7-
-3/5-5-5-5- 5-5-5-5-2-2-2-0-5-5-5--3/5-5-5-5-
------------ 5-5-5-5-2-2-2-0-------------------

--------------------------------------
--------------------------------3-3---
--------------------------------2-2-2-
-5--5-5-5-2--2-2-2--3-3-3-3--- 0-0-0-
-5--5-5-5-2--2-2-2--3-3-3-3--------0-
-5--5-5-5-2--2-2-2--3-3-3-3-0--------
    
-------------------------------------
--------------------------------------
------------------- 7-7-7--5/7-7-7-7-
-- 5-5-5-5-2-2-2-0-7-5-5--5/7-7-7-7-
-- 5-5-5-5-2-2-2-0-5-5-5--3/5-5-5-5-
-- 5-5-5-5-2-2-2-0-------------------

--------------------------------------
--------------------------------3-3---
--------------------------------2-2-2-
-5--5-5-5-2--2-2-2--3-3-3-3--- 0-0-0-
-5--5-5-5-2--2-2-2--3-3-3-3--------0-
-5--5-5-5-2--2-2-2--3-3-3-3-0--------

----------------------------------------10------------
-10~~~~(10)----------------12-(12)-------12--12------
-10~~~~(10)-10~~~~-(10)/12----12~~~~~~~~12~~~12\10
------------------------------------------------------
------------------------------------------------------
------------------------------------------------------

-------------------------------------------------------
-10------12------10--------12-------------------------
---10/12---12-10----10/12----12p10-10b1-(12)p10-12-10
-------------------------------------------------------
-------------------------------------------------------
-------------------------------------------------------

--------------------------------------------10-13p10---
-10-----------------13--13b1~~~~~~~~~~~~~--13---------13
-------------------------------------------------------
----12~~~~~~~12-12-----------------------------------
-------------------------------------------------------
-------------------------------------------------------

-10h13p10--10h13p10---10--10------------------------
----------13---------13--13---13p10-10-13p10-10-----
--------------------------------------------------12b1-
-------------------------------------------------------
-------------------------------------------------------
-------------------------------------------------------

-------------------------------------------------------
----------------------10h13---10----------------------
-(12)p10---10-12~~~~~------12--12b1-(12)p10--10------
--------12-----------------------------------12-12~~~~
-------------------------------------------------------
-------------------------------------------------------

--------------------------------------------------------
--------------------------------------------------------
------12b1~~~~~(12)p10---10~~~------12b1--(12)p10--10-
-x--x-------------------12------12-10-------------12---
--------------------------------------------------------
--------------------------------------------------------

-------------------------------------------------------
-------------------------------------------------------
-12b1-(12)p10-----10-12b1---12b1--(12)p10-------10-12b1
---------------12-------------------------12-(12)-------
--------------------------------------------------------
--------------------------------------------------------

---10-------10-------13p10---10h13p10--10h13p10--10--
-10--13b1~~~---13p10-------13---------13--------13----
--------------------------------------------------------
--------------------------------------------------------
--------------------------------------------------------
--------------------------------------------------------

--------------------------------------------------------
-13p10-13p10-10-13p10h13------------------------------
--------------------------12-12--12b1-(12)p10-10-------
-------------------------------------------------12~~~~
--------------------------------------------------------
--------------------------------------------------------
         
------------------
------10----(10)\-
----10------(10)\-
~~~---------------
-------------------
-------------------

--------------------------------------------------
-----------------------------------3--3-3-3-------
-0---0---0-----------------------2- 2 -2-2-2--- 0-0
-5---5---5--5-5-5-5-8/10-10-10-4- 4- 4-4-4-4-0-0-
-5---5---5--5-5-5-5-8/10-10-10-0- 0--------0-0-0-
-5---5---5--5-5-5-5-8/10-10-10-0- 0--------0----

                                           
--------------------------------------------------------
------------------------------------------------- 3-----
-0--0--0-----------------------------2- - ------- 2-- --
-5--5--5--8-8-8-8-8-10-10-10-10-10-4- 4- ------4-----
-5--5--5--8-8-8-8-8-10-10-10-10-10-0- 0--------0-----
-5--5--5--8-8-8-8-8-10-10-10-10-10-0- 0--0--0- 0-----

---------------------------------   
Comments