Nirvana - Blew Chords & Tabs

 

Blew Chords & Tabs

Nirvana Chords & Tabs

Version: 4 Type: Tab 0 ratings
1 star 2 stars 3 stars 4 stars 5 stars
comments

Blew Tab

NIRVANA-BLEW
WRITEN BY-KURT COBAIN
TABBED BY-ASH MIDDLETON

INTRO:
e]---------------------------------------------------------------------------|
a]---------------------------------------------------------------------------|
b]---------------------------------------------------------------------------|
d]---------------------------------------------------------------------------|
g]-2---5----7/8--8--7---------5-----------/8---/8----------------------------|
e]-0---3----5/6--6--5---------3--3--0-----/6---/6----------------------------|

VERSE:"If you wouldnt mind,i would like to blew..."
e]---------------------------------------------------------------------------|
a]-------------------------------------------------------------------8-------|
b]----------------------------7--------------------------------------6-------|
d]---------5---7---7^----7----7------7---5---5/7---7---5----7\5/7----7-------|
g]------7--------------------------------------------------------------------|
e]---0-----------------------------------------------------------------------|

e]---------------------------------------------------------------------------|
a]-------------------------8-------------------------------------------------|
b]--------------------6----6-------------------------------------------------|
d]--------7\5/7---7----------------------------------------------------------|
g]---------------------------------------------------------------------------|
e]---0-----------------------------------------------------------------------|

SOLO:"another word that rhymes with shame!..."
e]---------------------------------------------------------------------------|
a]---------------------------------------------------------------------------|
b]--10^--------------------------10---10^---10--10---10---10---8---0----8----|
d]---------------------------------------------------------------------------|
g]---------------------------------------------------------------------------|
e]---------------------------------------------------------------------------|

e]---------------------------------------------------------------------------|
a]---------------------------------------------------------------------------|
b]--10---10^---10^----10^*---10^----10-----10^---8----0----------------------|
d]---------------------------------------------------------8--10--8H10--18^--|
g]---------------------------------------------------------------------------|
e]---------------------------------------------------------------------------|

e]---------------------------------------------------------------------------|
a]---------------------------------------------------------------------------|
b]---8-----10--10/13----12~----12~---12/15-----15---15/17--17---15---15------|
d]---------------------------------------------------------------------------|
g]---------------------------------------------------------------------------|
e]---------------------------------------------------------------------------|
[ Tab from: http://www.guitartabs.cc/tabs/n/nirvana/blew_tab_ver_4.html ]
e]---------------------------------------------------------------------------|
a]---18^---18----18^----18^----18^---18^---18^---18^-18^--10^--18--18^---18^-|
b]-----------------------------18^---18^-------------18^--10^------18^---18^-|
d]---------------------------------------------------------------------------|
g]---------------------------------------------------------------------------|
e]---------------------------------------------------------------------------|

e]---------------------------------------------------------------------------|
a]--10-----18~----18---18----16---16\15---15\13---15---13H15P13P0--11/12--13-|
b]---------------------------------------------------------------------------|
d]---------------------------------------------------------------------------|
g]---------------------------------------------------------------------------|
e]---------------------------------------------------------------------------|

e]---------------------------------------------------------------------------|
a]-13~---11------------------------------------------------------------------|
b]-------------12\11------11---9----10--10--10--8---10^----10^----10---8-----|
d]---------------------------------------------------------------------------|
g]---------------------------------------------------------------------------|
e]---------------------------------------------------------------------------|

e]---------------------------------------------------------------------------|
a]---------------------------------------------------------------------------|
b]----------------------8----8---10^---10---8-----------------------8---10---|
d]--10/8---0---8---10---------------------------10---8---10----10------------|
g]---------------------------------------------------------------------------|
e]---------------------------------------------------------------------------|

                   |-------------------hold bend------------------------------|
e]----------------------------------------------------------------------------|
a]-----------11----11^*---------11-----11-----11-----11----11----11---\-------|
b]---10^----------------------------------------------------------------------|
d]----------------------------------------------------------------------------|
g]----------------------------------------------------------------------------|
e]----------------------------------------------------------------------------|

OUTRO:"you can do anything"
e]---------------------------------------------------------------------------|
a]---------------------------------------------------------------------------|
b]---------------------------------------------------------------------------|
d]---------------------------------------------------------------------------|
g]---------------------------------------------------------------------------|
e]----0---0---3---5--5^----6----5----0----3----5--5^---5----5-----0----3---5-|

e]---------------------------------------------------------------------------|
a]---------------------------------------------------------------------------|
b]---------------------------------------------------------------------------|
d]---------------------------------------------------------------------------|
g]---------------------------------------------------------------------------|
e]--5^----5----5----0---3--5--5^---5^-/---0----------------------------------|

Email me to point out any mistakes: Nirvana9486@aol.com

Please rate!
Comments