Nirvana - Blew Chords & Tabs

 

Blew Chords & Tabs

Nirvana Chords & Tabs

Version: 3 Type: Tab 0 ratings
1 star 2 stars 3 stars 4 stars 5 stars
comments

Blew Tab

E|-----------------------------------------------------------------|
B|-----------------------------------------------------------------|
G|-----------------------------------------------------------------| REAPEAT
D|-----------------------------------------------------------------|  TWICE
A|-----------------------------------------------------------------|
E|-0-0-3-5-6H-6-5-3-0-3-0------------------------------------------|

E|-----------------------------------------------------------------|
B|-----------------------------------------------------------------|
G|-----------------------------------------------------------------|
D|-0-3-5-5B-5B-5-3-5-5-3---5-3-5-5-5---5-3-5-5-5-------------------|
A|-----------------------------------------------------------------|
E|-----------------------------------------------------------------|

E|-----------------------------------------------------------------|
B|-----------------------------------------------------------------|
G|-----------------------------------------------------------------|
D|-0-3-5-5B-5B-5-3-5-5-3-0---5-3-5-5-5---5-3-5-5-5-----------------|
A|-----------------------------------------------------------------|
E|-----------------------------------------------------------------|

E|-----------------------------------------------------------------|
B|-----------------------------------------------------------------|
G|-----------------------------------------------------------------|
D|-----------------------------------------------------------------|
A|-----------------------------------------------------------------|
E|-3-5-5-3-3-5-5-5-3-6---3-5-5-3-3-5-5-5-3-6-----------------------|

E|-----------------------------------------------------------------|
B|-----------------------------------------------------------------|
G|-----------------------------------------------------------------|
D|-----------------------------------------------------------------|
A|-----------------------------------------------------------------|
E|-3-5-5-3-3-5-5-5-3-777777777777777777777777777777777-------------|

SOLO:
E|-----------------------------------------------------------------|
B|-10-10-10^-10-10-10-10-8-0-8-10-10-10^---------------------------|
G|-----------------------------------------------------------------|
D|-----------------------------------------------------------------|
A|-----------------------------------------------------------------|
E|-----------------------------------------------------------------|

  
E|-----------------------------------------------------------------|     
B|-10~~~10-10-10-10-8-0-----------8-10-----------------------------|
G|----------------------8-10-8-10----------------------------------|
D|-----------------------------------------------------------------|
A|-----------------------------------------------------------------|
E|-----------------------------------------------------------------|
[ Tab from: http://www.guitartabs.cc/tabs/n/nirvana/blew_tab_ver_3.html ]
E|-----------------------------------------------------------------|
B|-10/13-12~~-12^-12/15-15-15/17-17-15-----------------------------|
G|-----------------------------------------------------------------|
D|-----------------------------------------------------------------|
A|-----------------------------------------------------------------|
E|-----------------------------------------------------------------|

E|-----------------------------------------------------------------|
B|------18-18^-18-18-18-18^-18-18^-18------------------------------|
G|-15-15----------------18^----18^-18^-----------------------------|
D|-----------------------------------------------------------------|
A|-----------------------------------------------------------------|
E|-----------------------------------------------------------------|

E|-----------------------------------------------------------------|
B|-18^-18-18--18^-18~~~~18~~~~~18-16-------------------------------|
G|-18^----18^-18^--------------------------------------------------|
D|-----------------------------------------------------------------|
A|-----------------------------------------------------------------|
E|-----------------------------------------------------------------|

E|-----------------------------------------------------------------|
B|-16\15-15\13-15-13^15^13^0-11/12-13-13~--------------------------|
G|-----------------------------------------------------------------|
D|-----------------------------------------------------------------|
A|-----------------------------------------------------------------|
E|-----------------------------------------------------------------|

E|-----------------------------------------------------------------|
B|-11--------------------------------------------------------------|
G|----12\11-11-9-10-10-10-8-10-10-10-8-----------------------------|
D|-----------------------------------------------------------------|
A|-----------------------------------------------------------------|
E|-----------------------------------------------------------------|

E|-----------------------------------------------------------------|
B|-----------------------------------------------------------------|
G|-------------8-8-10-10-8------------8-10-------------------------|
D|-10\8-0-8-10-------------10-8-10-10------------------------------|
A|-----------------------------------------------------------------|
E|-----------------------------------------------------------------|

E|-----------------------------------------------------------------|
B|-------11-11-11-11-11-11-11-11-11\-------------------------------|
G|-10-10-----------------------------------------------------------|
D|-----------------------------------------------------------------|
A|-----------------------------------------------------------------|
E|-----------------------------------------------------------------|

E|-----------------------------------------------------------------|
B|-----------------------------------------------------------------|
G|-----------------------------------------------------------------|
D|-----------------------------------------------------------------|
A|-----------------------------------------------------------------|
E|-0-3-5-6-6/5---0-3-5-6-6/5---0-3-5-6-6/5---0-3-5-6-6/0-----------|

THIS IS MY FIRST TAB.SO IT MIGHT SUCK.I HOPE U LIKE IT.IT U WANT TO WRITE TO ME THIS IS
MY EMAIL ADDRESS: RABBIT7190@YAHOO.COM
Comments