Nirvana - Blew Chords & Tabs

 

Blew Chords & Tabs

Nirvana Chords & Tabs

Version: 1 Type: Tab 0 ratings
1 star 2 stars 3 stars 4 stars 5 stars
comments

Blew Tab

   
-------------------------------------------------------------------------------
			     Blew - Nirvana
-------------------------------------------------------------------------------

Tabbed by:Nathan Rhind
Email:fleshhold92@hotmail.com

Tuning:Drop D

e|---------------------------------------------------------------------------|
B|---------------------------------------------------------------------------|
G|---------------------------------------------------------------------------|
D|---------------------------------------------------------------------------|
A|-0-0-3-5-6--6-5-3-0-3\5--3\5-----------------------------------------------|
E|-0-0-3-5-6--6-5-3-0-3\5--3\5-----------------------------------------------|

e|---------------------------------------------------------------------------|
B|----------------------------------------------6--------------------6-------|
G|----------------------------------------------4--------------------4-------|
D|----0--3-5-5B---5B---5-3-3-5-5-3-----5p3h5-5--5----0-0-0--5p3h5-5--5-------|
A|---------------------------------------------------0-0-0-------------------|
E|-0-------------------------------------------------0-0-0-------------------|
[ Tab from: http://www.guitartabs.cc/tabs/n/nirvana/blew_tab.html ]
e|---------------------------------------------------------------------------|
B|----------------------------------------------6-------------------6--------|
G|----------------------------------------------4-------------------4--------|
D|----0--3-5-5B---5B---5-3-3-5-5-3-0----5p3h5-5-5----0-0-0--5p3h5-5-5--------|
A|---------------------------------------------------0-0-0-------------------|
E|-0-------------------------------------------------0-0-0-------------------|

e|---------------------------------------------------------------------------|
B|---------------------------------------------------------------------------|
G|---------------------------------------------------------------------------|
D|---------------------------------------------------------------------------|
A|-3-5--5-5-3-0-3--3-5--5-5-3-6----3-----------------------------------------|
E|-3-5--5-5-3-0-3--3-5--5-5-3-6----3-5--5-5-3-0-3-3-5--5-5-3-6---------------|

e|---------------------------------------------------------------------------|
B|---------------------------------------------------------------------------|
G|---------------------------------------------------------------------------|
D|---------------------------------------------------------------------------|
A|-----------------------------7--7-7-7-7-7-7-7-7-7-7-7-7-7-7-7--------------|
E|-3-5--5-5-3-0-3-3-5---5-5-3--7--7-7-7-7-7-7-7-7-7-7-7-7-7-7-7--------------|

e|---------------------------------------------------------------------------|
B|---------------------------------------------------------------------------|
G|---------------------------------------------------------------------------|
D|---------------------------------------------------------------------------|
A|-0-3-5-6-6--6/3--0-3-5-6-6--6/3--0-3-5-6-6--6/3--0-3-5-6-6-6-6--0----------|
E|-0-3-5-6-6--6/3--0-3-5-6-6--6/3--0-3-5-6-6--6/3--0-3-5-6-6-6-6--0----------|




| /  slide up
| \  slide down
| h  hammer-on
| p  pull-off
| ~  vibrato
| +  harmonic
| x  Mute note

===============================================================================
Comments