Nirvana - Bleach Chords & Tabs

 

Bleach Chords & Tabs

Nirvana Chords & Tabs

Version: 1 Type: Bass Tab 0 ratings
1 star 2 stars 3 stars 4 stars 5 stars
comments

Bleach Bass Tab

   
-BLEACH- 

1.Blew
2.Floyd The Barber
3.About a Girl
4.School
5.Love Buzz
6.Paper Cuts
7.Negative Creep
8.Scoff
9.Swap Meet
10.Mr. Moustache
11.Sifting
12.Big Cheese
13.Downer


1)Blew

Intro
G-----------------|
D-----------------|
A-----------------|
E--0-0-2-2h3-3-1--|

Verses
G------------------------|-----------------------------|
D------------------------|-----------------------------|
A------------------------|-----------------------------|
E-0---3-5-5b(1/2)-(6)r5--|---3-0-0-5b(1/2)---5b(1/2)---|

G-----------------------|-----------------------------|
D-----------------------|-----------------------------|
A-----------------------|-----------------------------|
E-0-0-3-5b(1/2)-(6)r5---|---3-0-0-5b(1/2)---5b(1/2)---|

Chorus                                (2x)
G-------------------|----------------------|-----------------|
D-------------------|---------------------o|-----------------|
A-------------------|---------------------o|-----------------|
E---0-5---5-5-3-0---|-0-5---5-5-3-5b(1/2)--|-0-5---5-5-3-0---|

G-----------------|-----------------|
D-----------------|-----------------|
A-----------------|-----------------|
E-0-5---5-5-3-----|-6-6-6-6-6-6-6-6-|

   Outro                            Repeat as necessary
G-------------------------|---------------------------|
D-------------------------|o-------------------------o|
A-------------------------|o-------------------------o|
E-0-0-3-5-5b(1/2)-(6)-r-0-|----0-3-5-5b(1/2)-(6)-r-0--|

G---------------------------|--------------------|
D---------------------------|--------------------|
A---------------------------|--------------------|
E---0-3-5-5b(1/2)-(6)-------|-(6)-r-5------------|

     + 2 +    3     +           1    2

NOTE on "5b(1/2)" in the tab:  The actual 5th fret marking is just a
grace note.  The 1/2-step bend itself falls on the beat (usually).
The Sixth fret markings in parentheses "(6)" means that you should
strike the note WHILE BENDING, meaning that you should strike the string
while the string is still bend up half a step.

2) Floyd The Barber

Verse
G-----------|
D-----------|
A-----------|
E-3-3-0-0-0-|

Chorus
G--------------|
D--------------|
A-3-3----2-2---|
E----4-4-----3-|

3) About A Girl
  
Verse 
G-----------------------------------------------------------|
D-----------------------------------------------------------|
A-----------------------------------------------------------|
E-0-0-0--3-3-3--0-0-0--3-3-3--0-0-0--3-3-3--0-0-0-3-3-3-3-3-|

Guitar solo
G--------------------|-------------------------------|I dont think that's right...Help!!!!
D-------5-------5----|-------------------------------|
A---7-------7-------7|--4----------------------------|
E--------------------|---------4--------2-2----2-2---|

G-----------------------|
D-----------------------|
A-4-4-4-----------------|
E--------4-4-4--2-2-2-2-|

Chorus
G----------------------------|
D----------------------------|
A--------3-3-3---------------|
E-5-5-5---------0-0-0--3-3-3-|

4) School

G----------------------------|
D----------------------------|
A----------------------------|
E-0--0-0-5-0--5-0-0-0-0-0--5-|

Chorus
G------------------------------------|
D------------------------------------|
A-3--3-3-3--3-3-3----0--0-0-0--0-0-0-|
E------------------------------------|

5) Love Buzz

Intro/Verse                     
G-------2h3---|
D-0-2-3-----2-|
A-------------|
E-------------|

Riff # 2
G-----7-----------7-----------7---7-8-8/10-8-7-------|
D---8---8-6-8-6-8---8-6-8-6-8---8--------------8-6-8-|
A----------------------------------------------------|
E----------------------------------------------------|

G------------------------------------------------|
D------------------------------------------------|
A------------5---------------------5-------------|
E---1--4--6-----6--4--6---1--4--6-----6--4--6----|

6) Paper Cuts
[ Tab from: http://www.guitartabs.cc/tabs/n/nirvana/bleach_btab.html ]
Intro & Verse
G----------------------|
D----------------------|
A----------------------|
E-1-1-1-1-1-1--1-1-1-1-|
   
Chorus:
...maternal love...
E only

...I say so...
G-----------------------------|
D-----------------------------|
A-----------------------------|
E-2--3-3--4-4--5-5--6-7-6-6-6-|

...Nirvana...
G--------------|
D--------------|
A--------------|
E-4\3-3--7\6-6-|

Post Chorus
G------------------------|
D------------------------|
A------------------------|
E-2--2--2--2--2--2--2--2-|
   
7) Negative Creep

G----------------------------------|I think only the solo is right...
D----------------------------------|Help me... (no, I'm not hungry.)
A----------------------------------|
D---12-12-12-12-12-12-12-12-12\0---|

G------------------------|
D------------------------|
A------------------------|                  
D---0-0-0-0-0-0-0-0/12---|

Chorus
G------------------------------|
D------------------------------|
A-7-7-5--------------5-8-8-8-8-|
D-------5-5-5--4-5-5-----------|

Bridge (The Part Where The Guitar Plays And Kurt Just Screams)
G------------------------------------------------------|
D---------------------------1/2-----------------1/2----|
A--------------------------17b17---------------17b17---|
D---16-16-16-16-16-16-16-16-----5-5-5-5-5-5-5-5--------|

8) Scoff

G---------------|
D---------------|
A---------------|
E-2-2-0-2-2-2-0-|

Chorus
G---------------------------|
D---------------------------|
A-3-3-3-3-3-3--5-5-5--2-0-2-|
E---------------------------|

9) Swap Meet

G------------------------------------|
D------------------------------------|
A----------0-1-2-3-4---1-0-----------| 
E----0-3-----------------------3-0---|

G-------------------------------------------------|
D-------------------------------------------------|
A----3-2-1--1-1-0-1-0--0-0--1-0-------------------|
E------------------------------------4-3-2--2-2---|

10) Mr. Moustache

G-------------------------------------|
D-------------------------------------|
A-----2---------------1---------------|
E---3---3-2-1-0-1-2-3---3-2-1-0-1-2---|

Verse
G-------------------------|
D-------------------------|                         
A-------------------------|
E---5--5-----------5--5---|
    Fill me in on your new vision...

Chorus
G-------------------------------|
D-------------------------------|
A---3---5-----5-----------5-5---|
E-------------------------------|
            Easy in an easy chair...

11) Siftings

G------------------------------------|
D------------------------------------|
A----------3----------------2\1--0---|
E--0-0-0---------0-0-0---------------|
       Afraid.......

Prechorus
G---------------------|
D---------------------|
A----------5------\---|
E--0-0-0--------------|
               Your eyes...

Chorus
G-------------------------------------|
D-------------------------------------|
A--5----5--5--5-5---------------------|
E---------------------5--5---5-3-0-0--|
                    Don't have nothing for you......
Solo
G------------|
D------------|
A------------|
E--0-0-0-0---| 

12) Big Cheese

G-------------------------------|
D-------------------------------|
A---4-4-4-4-3-3-3-3-(or 3- 2)---|
E-------------------------------|
Big cheese...

G--------------------------------------|
D--------------------------------------|
A---4-4-4-4-4-4-4-4-0-2-0-3-4(x8)--0---|
E--------------------------------------|
Black is black...

During guitar solo:
G--------------------------------------------|
D---2-2-2--2-3-3-3--0--2-0-2-0-0-------------|
A----------------------------------------2---|
E--------------------------------------------|

13) Downer

G-----------------------|
D-----------------------|                       
A-----------------------|
E---0-0-0-8-8-8-8-8-8---|

G---------------|
D---------------|
A---1-2-3-2-1---|
E---------------|

Interlude
G------------------------------------|
D------------------0-0-0-0-1-1-1-1---|
A---0-0-0-0-1-1-1-1------------------|
E------------------------------------|
Comments