Nirvana - Blandest Chords & Tabs

 

Blandest Chords & Tabs

Nirvana Chords & Tabs

Version: 5 Type: Tab 0 ratings
1 star 2 stars 3 stars 4 stars 5 stars
comments

Blandest Tab

   
Blandest
Nirvana
Tabbed by Doug Garvey.

-------------------
Tune half step down.
B
  = A fast bending action, but with vibrato action.                    
V
It may be shown on different strings (B,V) but its really for the note which appears
below it.
-------------------


Intro.
E|------------------------------|------------------------------|
B|------------------------------|------------------------------|
G|------------------------------|------------------------------|
D|------------------------------|------------------------------|
A|-------------------6----------|------------------------------|
E|---7|let ring|-7/8---8-5------|------------------------------|

Verse.
E|------------------------------|------------------------------|
B|------------------------------|------------------------------|
G|------------------------------|------------------------------|
D|--------B---------------B-----|--------B---------------B-----|
A|----6---V-----------6---V-----|----6---V-----------6---V-----|
E|--8---8-5---------8---8-5-----|--8---8-5---------8---8-5-----|

Chorus.
E|--2---------------------------|--2---------------------------|
B|--2---------------------------|--2---------------------------|
G|--2---------------------------|--2---------------------------|
D|---------------------2--------|---------------------2--------|
A|----0-2-4-3-2-0-2-3-4-4-3-2-0-|----0-2-4-3-2-0-2-3-4-4-3-2-0-|
E|2-----------------------------|2-----------------------------|
[ Tab from: http://www.guitartabs.cc/tabs/n/nirvana/blandest_tab_ver_5.html ]
Bridge.
E|------------------------------|------------------------------|
B|------------------------------|------------------------------|
G|------------------------------|------------------------------|
D|-B-B-B-B--B-B-B---------------|-B-B-B-B--B-B-B---------------|
A|-V-V-V-V--V-V-V---------------|-V-V-V-V--V-V-V---------------|
E|-8-8-8/5--5-5-5---------------|-8-8-8/5--5-5-5---------------|

Solo.
E|------------------------------|------------------------------|
B|------------------------------|------------------------------|
G|-------B-BB--BB-BB-BB---------|------------------------------|
D|----BB-V-VV--VV-VV-VV---------|------------------------------|
A|----VV-8/12--12-12-12---------|------------------------------|
E|----88------------------------|--88-8/5--5-5-5---------------|

Outro/Bridge.            These Scratches are around the 17 frets.
E|------------------------------|------------xxxxxxx-----------|
B|------------------------------|------------xxxxxxx-----------|
G|------------------------------|------------xxxxxxx-----------|
D|-10-10--7-777-----------------|-10-10--7-7/xxxxxxx-----------|
A|-10-10--7-777-----------------|-10-10--7-7/------------------|
E|-8--8---5-555-----------------|-8--8---5-5/------------------|

Outro.
E|------------------------------|------------------------------|
B|------------------------------|------------------------------|
G|------------------------------|------------------------------|
D|-10-10--7-777-----------------|------------------------------|
A|-10-10--7-777-----------------|------------------------------|
E|-8--8---5-555-----------------|-2----------------------------|

Just play the verses when the verses is played in the song and
the chorus when the chorus is played in the song. hah. Its a real
simple and fun song to  play, enjoy! Corrections to guitardoug90@yahoo.com
Comments