Nirvana - Blandest Chords & Tabs

 

Blandest Chords & Tabs

Nirvana Chords & Tabs

Version: 3 Type: Tab 0 ratings
1 star 2 stars 3 stars 4 stars 5 stars
comments

Blandest Tab

Band:Nirvana  Composer:Kurt Cobain
Ablum:With The Lights Out(Disc 1)
^=slow bend   x=dead note

INTRO/VERSES:
e|-------------------------|
B|-------------------------|
G|-------------------------|
D|----------------------7--|
A|-----3-6-5-0(let ring)---|
E|-------------------------|

CHORUS:                                    End of Chorus:
e|------2-------------------------------2-|----------------------|
B|------2-------------------------------2-|----------------------|
G|------2-------------------------------2-|----------------------|
D|----------------------------------------|----------------------|
A|---------3-4-5-4-3-3-4-3-4-3-5-4-3-0----|---3^--0---3-4-5-0----|
E|-----2-------------------------------2--|----------------------|


SOLO/BRIDGE:
E|-------------------------|
B|-------------------------|
G|----------2^-------------|
D|-------------------------|
A|----3-6-5------3-6-5-----|
E|---------------------5^--|

OUTRO:
e|---------------------|
B|---------------------|
G|---xxxx-5-8-7--------|
D|---xxxx-5-8-7-7---7--|
A|---xxxx-3-6-5-7---7--|
E|--------------5---5--|
[ Tab from: http://www.guitartabs.cc/tabs/n/nirvana/blandest_tab_ver_3.html ]
Lyrics:
You're my favorite, of my saviors
You're my favorite, Oooh Nooo
You're my favorite, of my favors
You're my praiser,  Oooh Nooo

HEy!
And the situation wasn't that as intense as i thought
I need you around to remind me of what not to become
And the situation wasn't that as intense as i thought
I need you around to remind me of what not to become
'Come 'come 'come

You're my favorite, of my failures
You're my favorite, Oooh Nooo
You're my favorite, of my favors
You're my razor, Oooh Nooo

HEy!
And the situation wasn't that as intense as i thought
I need you around to remind me of what not to become
And the situation wasn't that as intense as i thought
I need you around to remind me of what not to become
'Come 'come 'come

(SOLO)
Aahh Ah Ah Ah Aah

You're my favorite, of my saviors
You're my favorite, Oooh Nooo
You're my favorite, of my favors
You're my razor, Oooh Nooo

HEy!
And the situation wasn't that as intense as i thought
I need you around to remind me of what not to become
And the situation wasn't that as intense as i thought
I need you around to remind me of what not to become
'Come 'come 'come

Aahh Ah Ah Ah Aah


That's all.Have fun.
Comments