Nirvana - Blandest Chords & Tabs

 

Blandest Chords & Tabs

Nirvana Chords & Tabs

Version: 2 Type: Tab 0 ratings
1 star 2 stars 3 stars 4 stars 5 stars
comments

Blandest Tab

nirvana blandest
tabbed by steven barker                                                                  
    v-slow vibrato
tune down half a step

intro/verse
e---------------------------------------------|
b---------------------------------------------|
g---5-4-5-2-----------------------------------|
d---5-4-5-2-----------------------------------|
a---3-2-3-0-----------------------------------|
E---------------------------------------------|

chorus
e------2------------------------------------------------2-------|
b------2------------------------------------------------2-------|
g------2------------------------------------------------2-------|
d--------------------------------------2----------------2-------|
a--------------2-3-4-3-2-0-2-3-4--4-3-2-0-----------------------|
E--2----------------------------------------------2-------------|

repeat a few times then the little bridge to the verse (or the chorus ending) is this
[ Tab from: http://www.guitartabs.cc/tabs/n/nirvana/blandest_tab_ver_2.html ]
e-------------------------------------------------------|
b-------------------------------------------------------|
g-------------------------------------------------------|
d-------------------------------------------------------|
a---3v--0---3v--0---3v--0---3v--0-----------------------|
E-------------------------------------------------------|


solo
e-----------------------------------------------------|
b----2v-----------------------------------------------|
g-----------------------------------------------------|
d-----------------------------------------------------|x4
a-3v----3v---0----------------------------------------|
E-----------------------------------------------------|

repeat the chorus ending after the solo and then go back to the verse

outro

e---------------------------------------------------|
b---------------------------------------------------|
g--5--8--3--2---------------------------------------|
d--5--8--3--2---------------------------------------|
a--3--6--5--0---------------------------------------|
E---------------------------------------------------|
Comments