Nirvana - Big Long Now Chords & Tabs

 

Big Long Now Chords & Tabs

Nirvana Chords & Tabs

Version: 2 Type: Tab 0 ratings
1 star 2 stars 3 stars 4 stars 5 stars
comments

Big Long Now Tab

   
NIRVANA- BIG LOMG NOW
TRACK 14 FROM THE ALBUM 'INCESTICIDE'

SONG STRUCTURE AND LYRICS ARE AT FOOT OF PAGE

INTRO/VERSE:

e|------|--------------------------|.|
b|------|--------------------------|.|
g|------|--------------------0-----|.|
d|------|-----3-----3-----3-----3--|.|
a|--4*--|--4-----5-----4-----------|.|
e|------|--------------------------|.|
 *- Fade in with volume knob.  

It's not cold enough, please put this side on,
she is in blue.

BRIDGE:

    Bb5                 A5                 G5
e|-----------------------------------------------|
b|-----------------------------------------------|
g|-----------------------------------------------|
d|--8--8--8--8---8---8--7----7---7-7---7---5--5--|
a|--8--8--8--8---8---8--7----7---7-7---7---5--5--|
e|--6--6--6--6---6---6--5----5---5-5---5---3--3--|
                 Can we show our faces now?
  
CHORUS:
    D5       C#5 (let ring)  D5       C#5     G5
e|------------------------|-----------------------|
b|------------------------|-----------------------|
g|--7--7--7--6------------|--7--7--7--6-----------|
d|--7--7--7--6------------|--7--7--7--6-------5---|
a|--5--5--5--4------------|--5--5--5--4-------5---|
e|------------------------|-------------------3---|
              In this climb              I am blind...

OUTRO:
[ Tab from: http://www.guitartabs.cc/tabs/n/nirvana/big_long_now_tab_ver_2.html ]
  Riff 1
e|--------------------------|--------------------------|
b|--------------------------|--------------------------|
g|--------------------------|--------------------------|
d|--5--5--5--5--5--5--5--5--|--4--4--4--4--4--4--4--4--|
a|--5--5--5--5--5--5--5--5--|--4--4--4--4--4--4--4--4--|
e|--3--3--3--3--3--3--3--3--|--2--2--2--2--2--2--2--2--|
                               Ah_____________________  

e|--------------------------|
b|--------------------------|
g|--------------------------|
d|--3--3--3--3--3--3--3--3--|
a|--3--3--3--3--3--3--3--3--|
e|--1--1--1--1--1--1--1--1--|
    Ah____________________

 OUTRO- Riff 2 

  Part A           Part B
e|--------------|.|--------------|-----|
b|--------------|.|--------------|-----|
g|--------------|.|--------0-----|-----|
d|-----3-----3--|.|-----3-----3--|-----|
a|--4-----5-----|.|--4-----------|--4--|
e|--------------|.|--------------|-----|

SONG LYRICS:

It's not cold enough, please put this side on,
she is in blue, can we show our faces now?
I'm not in a steam, she's not turning green,
shameful as it seems, can we show our faces now?

In this climb, I am blind,
why can't I hear? You're alright.
Speaking a phrase, instantly grow,
I am blind. 
(Chorus 1)- Waiting in line
(Chorus 2)- Why I must show?

SONG STRUTURE:

Intro riff x4
Verse riff (until end of verse)
Bridge
Verse riff (until end of verse)
Bridge
Chorus 
Intro riff x4
verse riff (until end of verse)
Bridge
Verse riff (until end of verse)
Outro riff 1
Outro riff 2- Part A x8
Outro riff 2- Part B
 
I am sure of the accuracy of this tab, but if you do have
questions/comments/corrections, email me at the_legend_kurt@hotmail.com
Comments